Ten Years After - Ive Been There Too Chords & Tabs

 

Ive Been There Too Chords & Tabs

Ten Years After Chords & Tabs

Version: 1 Type: Tab 0 ratings
1 star 2 stars 3 stars 4 stars 5 stars
comments

Ive Been There Too Tab

   
Song: I've Been There Too
Artist: Ten Years After
Album: A Space In Time (1971)
Tunning: Standar (EADGBe)

Tabbed by Alejo Eremita

This is the first Ten Years After I've tried to tab. Beautiful song.
The song is not 100% accurate, but I think is good enough.



-Acoustic Riff (Played on the verses and most of the song)


         A                   D
e|--------------0----|--------------2----|
B|----------2-----2~-|----------3-----3~-|
G|------------2------|------------2------|
D|-------------------|-------0~----------|
A|---0h3-0~----------|---0h3-------------|
E|0h3----------------|0h3----------------|


A                           D
  There's someone somewhere   who can't go on
A                      D
  Their life is crying,   it's all gone wrong
A                    D
  What can I say now    to help you through
A                    D
  Except to say that I've been there too? 

-Distortion Break Break

e|----------------------|----------------------|
B|----------------------|----------------------|
G|----------------------|----------------------|
D|----------------------|----------------------|
A|----------------------|-5-5-5-5-5-3-5-5-3--5-|
E|-5-5-5-5-5-3-5-5-3--5-|----------------------| Repeat

-Acoustic Riff Again and same chords trhough the verse
[ Tab from: http://www.guitartabs.cc/tabs/t/ten_years_after/ive_been_there_too_tab.html ]
Your soul is aching, you can't see it through
But time is healing each day you do
Keep looking forward, forget the past
It's up to you now, don't let it last

-Chorus Riff
e|-------------------|
B|-------------------|
G|-------------------|
D|-------------------|
A|-----3-3-5-5-5-7---|
E|-5-5-------------5-| Repeat

-Chorus With Chords

           A        C
You got to wake up, shake up
D                  A
You got a right to live
A         C
Shake up, don't break up
D                   A
You've got a lot to give

-Rest Of The Lyrics

You'll wake up one morning, you start to feel good
The sun in the blue sky looks like it should
'cause time is a healer, it's strange but it's true
So, keep looking forward, the sun will come through

You got to wake up, shake up
You got a right to live
Shake up, don't break up
You've got a lot to give

(Solo over A and D chords, play a mixture of A major and minor Pentatonic)

There's someone somewhere who can't go on
Their life is crying, it's all gone wrong
What can I say now to help you through
Except to say that I've been there too? 

You got to wake up, shake up
You got a right to live
Shake up, don't break up
You've got a lot to give

-Ending
e|---------------------------|
B|---------------------------|
G|---------------------------|
D|---------------------------|
A|-----3-3-3-----3-3-3-0---0~|
E|-0h3-------0h3---------3---|

--------
h  hammer-on
~  vibrato
Comments