Ten Years After - Id Love To Change The World Chords & Tabs

 

Id Love To Change The World Chords & Tabs

Ten Years After Chords & Tabs

Version: 2 Type: Tab 0 ratings
1 star 2 stars 3 stars 4 stars 5 stars
comments

Id Love To Change The World Tab

   
Ten Years After
I'd Love To Change The World

Tuning: Standard

   Em            Gmaj             Am             Cmaj      B7
E|-----------------------3-------------------------------------------|
B|-------------------------0-------------1-------------1---------0---|
G|-------0-------------0---------------2-------------0---0-----2-----|
D|-----2-------------0---------------2-------------2---------1-------|
A|---2-------------2---------------0-------0-1-2-3---------2---------|
E|-0-------0-1-2-3---------------------------------------------------|

   Em            Gmaj             Am             Cmaj      B7
E|-----------------------3-------------------------------------------|
B|-------------------------0-------------1-------------1---------0---|
G|-------0-------------0---------------2-------------0---0-----2-----|
D|-----2-------------0---------------2-------------2---------1-------|
A|---2-------------2---------------0-------0-1-2-3---------2---------|
E|-0-------0-1-2-3---------------------------------------------------|
[ Tab from: http://www.guitartabs.cc/tabs/t/ten_years_after/id_love_to_change_the_world_tab_ver_2.html ]
   Em           Gmaj          Am             Cmaj      B7
E|-0--0--0------3--3--3-------0--0--0------------------2--2--2------|
B|-0--0--0------0--0--0-------1--1--1-------1--1--1----0--0--0------|
G|-0--0--0------0--0--0-------2--2--2-------0--0--0----2--2--2------|
D|-2--2--2------0--0--0-------2--2--2-------2--2--2----1--1--1------|
A|-2--2--2------2--2--2-------0--0--0-------3--3--3----2--2--2------|
E|-0--0--0------3--3--3-------0--0--0-------------------------------|



Alternate Chords to use
   Em          G           Am          C             B7
E|------------------------------------------------------------------|
B|-0--0--0-----3--3--3-----5--5--5-----8---8---8-----7--7--7--------|
G|-0--0--0-----4--4--4-----5--5--5-----9---9---9-----8--8--8--------|
D|-2--2--2-----5--5--5-----7--7--7-----10--10--10----7--7--7--------|
A|-2--2--2-----5--5--5-----7--7--7-----10--10--10----9--9--9--------|
E|-0--0--0-----3--3--3-----5--5--5-----8---8---8-----7--7--7--------|



Strumming Pattern - Down, Down, Up


This tab is just a mix of what I've seen on this song so far and what I think sounds good
It's pretty accurate and either strumming pattern will work. Enjoy
Comments