Ten Years After - Id Love To Change The World Chords & Tabs

 

Id Love To Change The World Chords & Tabs

Ten Years After Chords & Tabs

Version: 1 Type: Tab 0 ratings
1 star 2 stars 3 stars 4 stars 5 stars
comments

Id Love To Change The World Tab

   
Ok, This is not an identicle copy of the solo, I changed and simplified some
things for my own convinence while interpeting this solo because I'm just not
fast enough to play the solo as fast as he does. However, because there is no
other tabbing of this solo i think this is a good place to start...

Here we go...

-------------------------------------------------------------------------------
	        I'D LOVE TO CAHNGE THE WORLD - TEN YEARS AFTER
-------------------------------------------------------------------------------
Tabbed by: UV20
Email: mendelman_20@yahoo.com
The Whole Thing is played on E pentatonic scale
[ Tab from: http://www.guitartabs.cc/tabs/t/ten_years_after/id_love_to_change_the_world_tab.html ]
First Chorus:
"I'd Love to cahnge the World"      "But I don't ...."
e|-7-5----5--------------------------7-5----5--------------------------------|
B|-----8-----8--7/8----------------------8-----8--7/8------------------------|
G|---------------------------------------------------------------------------|
D|---------------------------------------------------------------------------|
A|---------------------------------------------------------------------------|
E|---------------------------------------------------------------------------|
  "So I leave...."
e|-12p10-12p10h12-12-12-10--------------12-10----------12-10-----------------|
B|-------------------------12-10-10b-12-------12-11/12-------12-10---10------|
G|-----------------------------------------------------------------12---12--9|
D|---------------------------------------------------------------------------|
A|---------------------------------------------------------------------------|
E|---------------------------------------------------------------------------|
  "population"   "...breeding"
e|-----------------------------------------------------12-10-----------------|
B|-----------------------------------------------10/12-------12-10-----------|
G|-8/9-----------------8/9---------8/9--------12-------------------12-9-12b-9|
D|---------------------------------------------------------------------------|
A|---------------------------------------------------------------------------|
E|---------------------------------------------------------------------------|
  "don;t...me"
e|-11/12-10-12--12-12-10----------12-10--------------------------------------|
B|-----------------------12-10b12-------12-10--------------------------------|
G|---------------------------------------------12--12-9---12-9b--------------|
D|------------------------------------------------------9--------------------|
A|---------------------------------------------------------------------------|
E|---------------------------------------------------------------------------|
   "Life is funny...."
e|-----------------------------------------------------12-10-----------------|
B|-----------------------------------------------10/12-------12-10-----------|
G|-8/9-----------------8/9---------8/9--------12-------------------12-9-12b-9|
D|---------------------------------------------------------------------------|
A|---------------------------------------------------------------------------|
E|---------------------------------------------------------------------------|
   "who needs money"
e|-10----10/12-------17-19-17----17----------------12------------------------|
B|----12-------17-20----------20----20-17--10-8-10----10-8-10----------------|
G|------------------------------------------------------------8/9------------|
D|---------------------------------------------------------------------------|
A|---------------------------------------------------------------------------|
E|---------------------------------------------------------------------------|
  "I'd love to..."         "...to do"
e|----10h12-10h12-10/12-----19-15-17-15----------------------12-10h12--------|
B|-12-----------------------------------17-------------10-12-----------------|
G|-----------------------------------------16\12--9-12-----------------------|
D|---------------------------------------------------------------------------|
A|---------------------------------------------------------------------------|
E|---------------------------------------------------------------------------|
   "...leave it up to you"
e|--12-10----------10--------------------------------12-10-------------------|
B|--------12p11p10----10-----------10b---------10-12-------12-10----10-------|
G|-----------------------12b--9-12-----12-9-12-------------------12----12-9--|
D|---------------------------------------------------------------------------|
A|---------------------------------------------------------------------------|
E|---------------------------------------------------------------------------|
  SOLO
e|---------10-12-10h12-----------10-12-10h12----------10-12-10h12-10---------|
B|---10-12-----------------10-12----------------10-12---------------12-12----|
G|12--------------------12-------------------12------------------------------|
D|---------------------------------------------------------------------------|
A|---------------------------------------------------------------------------|
E|---------------------------------------------------------------------------|

e|12-10------------------15---------------15h16h17-15---------------15h16h17-|
B|------12-10----10---------17b-----15-17-------------17b-----15-17----------|
G|------------12----12-----------16------------------------16----------------|
D|---------------------------------------------------------------------------|
A|---------------------------------------------------------------------------|
E|---------------------------------------------------------------------------|

e|-15-----15-17-19-17-15----17-15--------------------------------------------|
B|----17b----------------17-------17-16/12-----------------------------------|
G|--------------------------------------------12-12-12-10--------------------|
D|-------------------------------------------------------12-10---------------|
A|-------------------------------------------------------------12-9----------|
E|---------------------------------------------------------------------------|

e|--------------10h11h12-10---10--------------------------19-17----17--------|
B|-----10h11h12------------12---12-10---10-------17-17-20-------20-----------|
G|9-12-------------------------------12---12-9-------------------------------|
D|---------------------------------------------------------------------------|
A|---------------------------------------------------------------------------|
E|---------------------------------------------------------------------------|

e|----------------------------------------12-15-12---------------------------|
B|20-17-17-20-17--------------12h13h14h15----------15-12---------------------|
G|---------------19-16--12-14----------------------------14-12----12-14b-12--|
D|-------------------------------------------------------------14------------|
A|---------------------------------------------------------------------------|
E|---------------------------------------------------------------------------|

e|------12--------------------11/12-12-----------------------12--------------|
B|11/12----15-12-----------------------15-12--------------------15-12--------|
G|---------------14-12---12------------------14-12----12-14b----------14-12--|
D|---------------------14--14----------------------14----------------------14|
A|---------------------------------------------------------------------------|
E|---------------------------------------------------------------------------|

e|------------12-15-12-------------------------|
B|------12-15----------15-12-------------------|
G|12-14---------------------14-12---12-14b-12--|
D|--------------------------------14-----------|
A|---------------------------------------------|
E|---------------------------------------------|
  "All polution..."
e|11/12----------11/12-----11/12-------11/12-----------------------11/12-----|
B|--------------------------------------------15-12--------------------------|
G|--------------------------------------------------15-14-12h13h14-----------|
D|---------------------------------------------------------------------------|
A|---------------------------------------------------------------------------|
E|---------------------------------------------------------------------------|
  "..rich or poor"
e|11/12----------11/12-----11/12-------11/12-----------------------------|
B|-------------------------------------------15-12-----------------------|
G|-------------------------------------------------14-12----14b15-12-----|
D|-------------------------------------------------------14----------14--|
A|-----------------------------------------------------------------------|
E|-----------------------------------------------------------------------|

In the last chorus there are a bunch of improvisations  didn't tab but they're all on e 
so it shouldn't be hard to take them out if you wish.


| /  slide up
| \  slide down
| h  hammer-on
| p  pull-off
| ~  vibrato
| +  harmonic
| x  Mute note
===============================================================================
Comments