Ten Years After - I'd Love To Change The World (riff) Chords & Tabs

 

I'd Love To Change The World (riff) Chords & Tabs

Ten Years After Chords & Tabs

Version: 1 Type: Tab 0 ratings
1 star 2 stars 3 stars 4 stars 5 stars
comments

I'd Love To Change The World (riff) Tab

   
#----------------------------------PLEASE NOTE---------------------------------#
#This file is the author's own work and represents their interpretation of the #
#song. You may only use this file for private study, scholarship, or research. #
#------------------------------------------------------------------------------#
Received: from ASUACAD (IFSXM) by ASUVM.INRE.ASU.EDU (Mailer R2.08) with BSMTP
 id 4947; Tue, 09 Feb 93 15:15:39 MST
Date: 09 Feb 1993 15:14:56 -0700 (MST)
From: Paul Zimmerman 
Subject: TAB: I'd Love to Change the World
To: jamesb@animal-farm.nevada.edu
Message-Id: 
Content-Transfer-Encoding: 7BIT

 
                  I'D LOVE TO CHANGE THE WORLD
                         Ten Years Gone
 
Riff:
|------------------------------------------------------------------
|-----------------------0-----------1-------------5-------4--------
|-------0-------------0---0-------2-------------5-------4----------
|-----2-------------0-------0---2-------------5-------4------------
|---2-------------2-----------0-------0-1-2-3-------2--------------
|-0-------0-1-2-3--------------------------------------------------




Peace, love, and soul,
Paul Zimmerman
[ Tab from: http://www.guitartabs.cc/tabs/t/ten_years_after/id_love_to_change_the_world_riff_tab.html ]
#----------------------------------PLEASE NOTE---------------------------------#
#This file is the author's own work and represents their interpretation of the #
#song. You may only use this file for private study, scholarship, or research. #
#------------------------------------------------------------------------------
This is a pretty cool song to begin with.  This main riff tab, 
may not be exactly right but niehter are the current tabs on this 
site for it...

This is how I play it, sounds awesome...

Standard tuning, it's pretty fast but you'll need to listen to the 
song to get it just right...

 e |-------------------------------------|
 b |-----------------0--------------0---0|
 g |----0-----------0-0------------0---2-|
 d |---2-----------0---0----------2---1--|
 a |--2-----------2-----0--0-1-2-3---2---|
 E |-0----0-1-2-3------------------------|

There you have it...  Anyone know the exact picking feel free to 
hook me up.

#----------------------------------PLEASE NOTE---------------------------------#
#This file is the author's own work and represents their interpretation of the #
#song. You may only use this file for private study, scholarship, or research. #
#------------------------------------------------------------------------------#.

I'd Love to Change the World
Ten Years After

Riff 1
   Em            G               Am          C
e------------------------3------------------------------------
B--------------------------0-----------------------1---------0
G--------0-------------0-------------1-----------0---0-----2--
D------2-------------0-------------2-----------2---------1----
A----2-------------2-----------0-2-----0-1-2-3---------2------
E--0-------0-1-2-3-----------3--------------------------------

Peace, love, and rock and roll.
                 Ian Conwell
Comments