Ten Years After - Id Love To Change The World Acoustic Chords & Tabs

 

Id Love To Change The World Acoustic Chords & Tabs

Ten Years After Chords & Tabs

Version: 1 Type: Tab 0 ratings
1 star 2 stars 3 stars 4 stars 5 stars
comments

Id Love To Change The World Acoustic Tab

   
Intro and Riff
e:-------------|-------------|-------3-----|-------------|
B:-------------|-------------|-----------0-|-------------|
G:-----------0-|-------------|-------------|-0-----------|
D:--------2----|-------------|----0--------|----0-----2--|
A:-----2-------|-------------|-2-----------|-------0-----|
E:--0----------|-0--1--2--3--|-------------|-------------|

e:-------------|-------------|-------------|-------------|
B:-----1-------|-------------|-5-----------|-4-----------|
G:--2----------|-----------5-|----------4--|-------------|
D:-------------|--------5----|-------4-----|-------------|
A:--------0--1-|-2--3--------|----2--------|-------------|
E:-------------|-------------|-------------|-------------|
[ Tab from: http://www.guitartabs.cc/tabs/t/ten_years_after/id_love_to_change_the_world_acoustic_tab.html ]
E                           G
Everywhere It               Freaks Inherints

A                           C
Dikes And Fairies           Let Me Where's The Senaty
________________________________________________________

E                           G
Tax The Rich                Feed The Poor

A                           C
Til There Are Not           Rich Nomore
________________________________________________________

I think you get the idea of how the rest is...
________________________________________________________
SOLO

e:-0-0-0----3-3-3-------------0-0-0---2-2-2---
B:-0-0-0----0-0-0----2-2-2----1-1-1---4-4-4---
G:-0-0-0----0-0-0----2-2-2----0-0-0---4-4-4---  Play this
D:-2---2----0---0----2---2----2---2---4---4---  until the
A:-2---2----2---2----0---0----3---3-----------  solo ends
Comments