Ten Times A Day - Breathe Chords & Tabs

 

Breathe Chords & Tabs

Ten Times A Day Chords & Tabs

Version: 2 Type: Tab 0 ratings
1 star 2 stars 3 stars 4 stars 5 stars
comments

Breathe Tab

#----------------------------------PLEASE NOTE--------------------------------#
#This file is the author's own work and represents their interpretation of the#
#song. You may only use this file for private study, scholarship, or research.#
#-----------------------------------------------------------------------------#
#-- File created with Instab - http://www.pconline.com/~smcarey/instab.html --#
#-----------------------------------------------------------------------------#

Author/Artist: Ten Times a Day
Title: Breath
Transcribed by: Will Petrik
Email: snoboarder_dude2@hotmail.com

------------|-15----------15---15--------------13-12-------------12-13-12-----|
------------|----13--------------15------15----------13-13-13-15----------11--|
--5----7----|-------12-12---12-----12-12----12--------------------------------|
--5-5--7--3-|-----------------------------------------------------------------|
--3-5--5--3-|-----------------------------------------------------------------|
----3-----1-|-----------------------------------------------------------------|
 intro        cool part

-------10--8-15----------15----15-17-15----------15-13-12----------12-13-12---|
----------------13-------------------------15-------------13-13-15------------|
-12-10-------------12-12----12----------12----12------------------------------|
------------------------------------------------------------------------------|
------------------------------------------------------------------------------|
------------------------------------------------------------------------------|

[ Tab from: http://www.guitartabs.cc/tabs/t/ten_times_a_day/breathe_tab_ver_2.html ]
----------10-8-|-----------------|--------------------------------------------|
-13------------|-----------------|-----------------------------8-8-6-6-6-5-5--|
----12-10------|-5-----5---7-10--|----5-4---4h5h6-5-4-4-4h5-5-----------------|
---------------|-5-5-3-5-5-7-10--|--5-----5-----------------------------------|
---------------|-3-5-3-3-5-5-8---|--------------------------------------------|
---------------|---3-1---3-------|--------------------------------------------|
                  chorus            solo   2:30

---8-7---10-8---12-10----10-13-12-10------------------------------------------|
-5-----8------8-------13-------------13----15-13-17-17-15-15-13-13-12-13b15---|
----------------------------------------12-------17-17-16-16-14-14-12---------|
------------------------------------------------------------------------------|
------------------------------------------------------------------------------|
------------------------------------------------------------------------------|


-------------------------------15-20-19-------20-19---------------------------|
----------11-13-11----------13----------20-20-------20-20-18-17---------------|
-12-11b13----------12----12-------------------------------------17------------|
----------------------10------------------------------------------------------|
------------------------------------------------------------------------------|
------------------------------------------------------------------------------|


-----------------------|------------|-----------------------------------------|
-----------------------|------------|-----------------------------------------|
-----------------------|---8--6-5---|---5-7-9-10------------------------------|
-3-3-3-3---------------|---x--x-x---|---x-x-x-x--5----------------------------|
-3-3-3-3---------------|---10-8-7---|---3-5-7-8--7----------------------------|
-1-1-1-1---------------|------------|-----------------------------------------|
 palm mute after solo     repeat         end
Comments