Ten Foot Pole - The Getaway Chords & Tabs

 

The Getaway Chords & Tabs

Ten Foot Pole Chords & Tabs

Version: 1 Type: Bass Tab 0 ratings
1 star 2 stars 3 stars 4 stars 5 stars
comments

The Getaway Bass Tab

Song: The Getaway
Artist: Ten Foot Pole
Tabbed by: Craig Hurley

Intro

G|---------------------|
D|---------------------|
A|---------------------|  Played 5 or 6 times
E|-4--2-5---4--2-5-----|

Verse

G|-------------------------------------------------------------------------------|
D|-------------------------------------------------------------------------------|
A|-7-7--7-7--6-6--6-6--4-4--4-4--2-2--2-2------------------------------------0-2-|
E|-----------------------------------------5-5--5-5--5-5--5-5--5-5--2-2--2-2-----|

Chorus
[ Tab from: http://www.guitartabs.cc/tabs/t/ten_foot_pole/the_getaway_btab.html ]
G|--------------------|
D|--------------------|
A|-----------0-0--2-2-|
E|-0-0--2-2-----------|

End of Chorus

G|------------------------------------------------|
D|------------------------------------------------|
A|-0-0-0-0-0--0-0-0--0-0-0-0--2-2-2-2-2-2-2-2-2-2-|
E|------------------------------------------------|

Solo

G|-------------|
D|---4--6--7---|
A|-7-----------|  Solo is played with some alternate plucking on the strings. 
E|-------------|  You hit each not a bunch of times before switching to the next

Craig Hurley
-CaptainCraig@hotmail.com

Comments