Ten Foot Pole - My Wall Chords & Tabs

 

My Wall Chords & Tabs

Ten Foot Pole Chords & Tabs

Version: 1 Type: Bass Tab 0 ratings
1 star 2 stars 3 stars 4 stars 5 stars
comments

My Wall Bass Tab

------------------------------------------------------------------
		    MY WALL - Ten Foot Pole
------------------------------------------------------------------

By: Dave Wilson (nougeypooge@hotmail.com for requests)

Verse 1 (x4)
G|---------------------------------------------------------------|
D|---------------------------------------------------------------|
A|---------5-5---------------------------------------------------|
E|-7-7-3-3-----7-7-3-3-------------------------------------------|

Verse 2 (x3)
G|---------------------------------------------------------------|
D|---------------------------------------------------------------|
A|---------------------------5-5-5-5-----------------------------|
E|-7-7-7-7-7-7-7-7--3-3-3-3--------------------------------------|

Chorus
G|---------------------------------------------------------------|
D|---------------------------------------------------------------|
A|-----------------5-5-5-5-3-3-2-2----------------2-2-2-2-3-3-2-2|
E|-0-0-0-0--3-3-3-3---------------0-0-0-0--3-3-3-3---------------|
[ Tab from: http://www.guitartabs.cc/tabs/t/ten_foot_pole/my_wall_btab.html ]
G|---------------------------------------------------------------|
D|---------------------------------------------------------------|
A|-----------------5-5-5-5-3-3-2-2----------------5-5-5-5-3-3-2-2|
E|-0-0-0-0--3-3-3-3---------------0-0-0-0--3-3-3-3---------------|

Verse 1 (x4)
Verse 2 (x2)

Bridge (x3)
G|---------------------------------------------------------------|
D|---------------------------------------------------------------|
A|--------5-6-7--------7-6-5-------------------------------------|
E|-5-5-5-5-----5-5-5-5-------------------------------------------|

Play this on the 4th time
G|---------------------------------------------------------------|
D|---------------------------------------------------------------|
A|--------5-6-7--------5-6-7---------------7-6-5-----------------|
E|-5-5-5-5-----5-5-5-5-------7-6-5-6-5-3-0-------7-6-5-3-5-6-----|
Verse 1 (x4)
Verse 2 (x2)
Chorus (x¾)

This is the last ¼ of the final chorus   (x-means dead note)
G|---------------------------------------------------------------|
D|---------------------------------------------------------------|
A|----------------5-5-5-5-12-12-12-12-10-10-10-10-8-8-8-8-7-5-7-5|
E|-0-0-0-0-3-3-3-3-----------------------------------------------|

G|---------------------------------------------------------------|
D|---------------------------------------------------------------|
A|-7-5-x-x-x-x-x-7-----------------------------------------------|
E|---------------------------------------------------------------|




Comments