Ten Foot Pole - John Chords & Tabs

 

John Chords & Tabs

Ten Foot Pole Chords & Tabs

Version: 2 Type: Bass Tab 0 ratings
1 star 2 stars 3 stars 4 stars 5 stars
comments

John Bass Tab

------------------------------------------------------------------
			 JOHN - Ten Foot Pole
------------------------------------------------------------------

By: Dave Wilson (nougeypooge@hotmail.com for requests)

Intro
G|---------------------------------------------------------------|
D|---------------------------------------------------------------|
A|-4-4-4-4--------------4-4-4-4--9-9-9---------------------------|
E|----------6-6--4-4-4-----------------9-------------------------|

G|---------------------------------------------------------------|
D|---------------------------------------------------------------|
A|-4-4-4-4--------------4-4-4-4------4---------------------------|
E|----------6-6--4-4-4-----------2-2-----------------------------|

Verse 1 (x2)
G|---------------------------------------------------------------|
D|---------------------------------------------------------------|
A|-6-6-6-6--9-9-9-9----------------------------------------------|
E|-------------------9-9-9--9-9-9--------------------------------|
[ Tab from: http://www.guitartabs.cc/tabs/t/ten_foot_pole/john_btab_ver_2.html ]
Verse 2 (x4)
G|---------------------------------------------------------------|
D|---------------------------------------------------------------|
A|---------------------------------------------------------------|
E|-6-6-6-6--4-4-4-4--1-1-1-1--2-2-2-2----------------------------|
Intro
Verse 1 (x2)
Verse 2 (x3)
Play this on the 4th time:
G|---------------------------------------------------------------|
D|---------------------------------------------------------------|
A|-------------------------------------4-------------------------|
E|-6-6-6-6--4-4-4-4--1-1-1-1--2-2-2-2----------------------------|

Bridge (x5)
G|---------------------------------------------------------------|
D|---------------------------------------------------------------|
A|-4-4-4-4--1-1-1-1----------------------------------------------|
E|-------------------2-2-2-2--4-4-4-4----------------------------|

Outro (x3)
G|---------------------------------------------------------------|
D|---------------------------------------------------------------|
A|-----------------------4-4-4-4-4--6-6-6-6-6--------------------|
E|-2-2-2-2-2--4-4-4-4-4------------------------------------------|
On the 4th time play this:
G|---------------------------------------------------------------|
D|---------------------------------------------------------------|
A|-9-9-9-9-9--4-4-4-4-4--4-4-4-4-4--6-6-6-6-6--9-9-9-9-9--4------|
E|---------------------------------------------------------------|





Comments