Ten 2 Five - I Will Fly Acoustic Chords & Tabs

 

I Will Fly Acoustic Chords & Tabs

Ten 2 Five Chords & Tabs

Version: 1 Type: Tab 0 ratings
1 star 2 stars 3 stars 4 stars 5 stars
comments

I Will Fly Acoustic Tab

   
********************************************************************
TABBED by:
Arvin Bajacan(vin)

questions or comments or Friendster
Email: vyn1026@yahoo.com
********************************************************************

3:09 AM 6/1/2004

Artist: Ten 2 Five
Song: I will Fly
Tuning: Standard Tuning (use bar chords)

INTRO:	
   Em	       Dm7                         CM7        
E-----9--------------5------------5------------3------|
B--8-----8----6---------6--6---------6----5-------5---|
G--7----------5---5--------5---5----------4-----------|
D-------------7------------5--------------------------|(2x)
A--7----------5---------------------------3-----------|
E-----------------------------------------------------|

Verse1:
  CM7                     Em	
You know all of things i've said 
  				Dm7	
You know all of things that we had done
		Dm7?
And things i gave to you

  CM7                     Em
There's a chance for me to say
			Dm7
How precious you are in my life
			Em
And you know that is true



Refrain1:
    Am		   Dm7        Dm7?
To be with you is all that i need
           Em                Am
Cause with you my life seems brighter	
	Dm7			Dm7?
And these are all the things i wanna say


[ Tab from: http://www.guitartabs.cc/tabs/t/ten_2_five/i_will_fly_acoustic_tab.html ]
Chorus:
   CM7      Em           Ebm  Dm7 	   Dm7?	
I will fly into your arms and be with you till the end of time
   CM7	       Em	  Ebm 
Why are you so far away
Dm7             		 Dm7?			CM7  Em Dm7 Dm7?
You know it's very hard for me to get myself close to you


Verse2:
CM7			Em
You're the reason why i stay
  			Dm7	
You're the one who cannot believe
	Dm7?
Our love will never end

CM7                Em
Is it only in my dreams
		    Dm7
You're the one who cannot see this
      Dm7?	           Em
How could you be so blind


Refrain2:
	Am            Dm7         Dm7?
To be with you is all that i need
        Em               Am
Coz with you my life seems brighter

 Dm7                               Dm7?
And these are all the things i wanna say (repeat chorus twice or thrice..its up to you hehehe)

						
			        CM7
I wanna get myself close to youuuuuuuuuu



********************************************************************

Chord Chart	

  Dm7      Dm7?     CM7	     Em      Ebm     Am
E--5--------5--------3--------7-------6-------5---------------|
B--6--------6--------5--------8-------7-------5---------------|
G--5--------5--------4--------9-------8-------5---------------|
D--7--------5--------5--------9-------8-------7---------------|
A--5--------5--------3--------7-------6-------7---------------|
E---------------------------------------------5---------------|

dedicated to a special someone =) 

Comments