Temptations - Stand By Me Chords & Tabs

 

Stand By Me Chords & Tabs

Temptations Chords & Tabs

Version: 4 Type: Tab 0 ratings
1 star 2 stars 3 stars 4 stars 5 stars
comments

Stand By Me Tab

****************************************************************************
song:stand by me
artist:temptations
tabbed by: trevor(i love amanda)
****************************************************************************
                        INTRO
e|-----------------------------------------------------------------
b|-----------------------------------------------------------------
g|-----------------------------------------------------------------
d|-----------------------------------------------------------------i like to
a|3-3-3-3-2-0-0-0-0-----------0------------------------------------play it
E|------------------3-1-1-1-1--3-3-3-------------------------------2 times
                        verse into refrain
e|-------------------------------------------------------------------------
b|-------------------------------------------------------------------------
g|-------------------------------------------------------------------------
d|-------------------------------------------------------------------------
a|-2-3-3-3-2-3-3-3-3-2-0-0-0-2-0-0-0-0---------0-------2-3-3-3-2-3---------
E|3-------1-----------------3---------3-1-1-1-1-3-3-3-3-------3------------

e|-------------------------------------------------------------------------
b|-------------------------------------------------------------------------
g|-------------------------------------------------------------------------
d|-------------------------------------------------------------------------
a|3-3-2-3-3-3-2-3-3-3-3-2-0-0-0--2-0-0-0-0---------0-------2-3-3-3---------
E|---3-------3------------------3---------3-1-1-1-1-3-3-3-3-------3--------

e|-------------------------------------------------------------------------
b|-------------------------------------------------------------------------
g|-------------------------------------------------------------------------
d|-------------------------------------------------------------------------
a|2-3-3-3-2-3-3-3-2-3-3-3-3-2-0-0-0-2-0-0-0-0---------0-------2-3-3-3-2-3-3
E|-------3-------3-----------------3---------3-1-1-1-1-3-3-3-3-------3-----
[ Tab from: http://www.guitartabs.cc/tabs/t/temptations/stand_by_me_tab_ver_4.html ]
Comments