Temptations - My Girl Chords & Tabs

 

My Girl Chords & Tabs

Temptations Chords & Tabs

Version: 4 Type: Bass Tab 0 ratings
1 star 2 stars 3 stars 4 stars 5 stars
comments

My Girl Bass Tab

Guitar does Intro

G---------------------7---10--------|
D------------7---10-----------------|  2X
A---8---10--------------------------|
E-----------------------------------|

Then Go Back and Forth

G---------------------7---10----------------------------|
D------------7---10------------------------------7---10-| 4X?
A---8---10------------------------------7---10----------|
E------------------------------8---10-------------------|

Chorus:
[ Tab from: http://www.guitartabs.cc/tabs/t/temptations/my_girl_btab_ver_4.html ]
G---------------------------------------------------------------------|
D---------------------------------------------------------------------|
A----------------8--8--8--8--10-----12----12----10----8---------------|
E-8---8-10---10-----------------------------------------------10----8-|
    I   GUESS   YOU   SAY   WHAT   CAN   MAKE   ME   FEEL   THIS   WAY

G---------------------------------------------------------------------------|
D--------------------------8--8---------------------------------------------|
A--------------8--8---------------------------------------------------------|
E--8--8-------------------------------------------------------------8--8----|
   MY GIRL     MY GIRL     MY GIRL   TALKING   'BOUT   MY GIRL      MY GIRL


Then go back.
Comments