Temple Of The Dog - Pushin Forward Back Chords & Tabs

 

Pushin Forward Back Chords & Tabs

Temple Of The Dog Chords & Tabs

Version: 1 Type: Bass Tab 0 ratings
1 star 2 stars 3 stars 4 stars 5 stars
comments

Pushin Forward Back Bass Tab

Temple of The Dog
Pushin Forward Back
Tabbed by Fábio R.
Normal Tuning (EADG)

Main Riff/Chorus

|-----------------|
|-----------------|
|-----------------|
|-7-7-5h7-7-7-5h7-|

Pre-Chorus
[ Tab from: http://www.guitartabs.cc/tabs/t/temple_of_the_dog/pushin_forward_back_btab.html ]
|-------------------------------------------------------|
|-------------------------------------------------------|
|-222222-2-22-2------------------------------------7775-|
|---------------333333-3-33-3-000000-0-00-0-222222------| 2x

Outro

|----------------------------|
|----11-9--------------------|
|-11------11---7---7-9-7-----|
|------------9---9-------9~~-|

Listen the music to get the timing.
Have Fun!
for comments send to: dragonz@terra.com.br

Comments