Temple Of The Dog - Hunger Strike Chords & Tabs

 

Hunger Strike Chords & Tabs

Temple Of The Dog Chords & Tabs

Version: 4 Type: Tab 0 ratings
1 star 2 stars 3 stars 4 stars 5 stars
comments

Hunger Strike Tab

------------------------------------------------------------------------------
			     Hunger strike - Temple of the dog
-------------------------------------------------------------------------------

Tabbed by:Scott Buffett
Email:buffey@northnet.org

Tuning:DADGBE
{---------------------------------------REPEAT-------------------------------}
e|-------------------|-----------------|-----------------|-------------------|
B|-----0---3------3--|-----0---3-----3-|-----0---3-----3-|-----0---3-----3---|
G|---0---0---0-------|---0---0---0-----|---0---0---0-----|---0---0---0-------|
D|-0-----------0-----|-2-----------2---|-0-----------0---|-0-----------0-----|
A|-------------------|-----------------|-----------------|-------------------|
D|-------------------|-----------------|-----------------|-------------------|
[ Tab from: http://www.guitartabs.cc/tabs/t/temple_of_the_dog/hunger_strike_tab_ver_4.html ]
 								
 {----------------------REPEAT DURING VERSES---------------------------------}
e|-------------------|-----------------|-----------------|-------------------|
B|-----0---3------3--|-----0---3-----3-|-----0---3-----3-|-5---3---0--3------|
G|---0---0---0-------|---0---0---0-----|---0---0---0-----|---0---0-----------|
D|-0-----------0-----|-2-----------2---|-0-----------0---|-------------------|
A|-------------------|-----------------|-----------------|-------------------|
D|-------------------|-----------------|-----------------|-------------------|




{---------repeat--------------}
e|----------------------------|-----------------------------------------------|
B|----------------------------|-----------------------------------------------|
G|----------------------------|-----------------------------------------------|
D|----------------------------|-----------------------------------------------|
A|-0--2------0---2-------9b---|-----------------------------------------------|
D|-0--2------0---2------------|-----------------------------------------------|
Comments