Temple Of The Dog - Hunger Strike Chords & Tabs

 

Hunger Strike Chords & Tabs

Temple Of The Dog Chords & Tabs

Version: 1 Type: Tab 0 ratings
1 star 2 stars 3 stars 4 stars 5 stars
comments

Hunger Strike Tab

   
                      "Hunger Strike" by Temple of the Dog

Tuning:  1.) Drop low E to D
	 2.) Drop high e to D


Intro & Main Riff:


d|-----------0---------|-----------0---------|
b|-------0-----0---0---|-------0-----0---0---|
g|-----0---0-----0-----|-----0---0-----0-----|
d|---0-----------------|---2-----------------|
a|---------------------|---------------------|
D|---------------------|---------------------|


Bridge:

    D5 E5 D5 E5
d|-----------------------------------|
b|-----------------------------------|
g|-----------------------------------|
d|---0--2--0--2----4^5^4^5^4~~~~~----|
a|---0--2--0--2----------------------|
D|---0--2--0--2----------------------|


Lyrics:
[ Tab from: http://www.guitartabs.cc/tabs/t/temple_of_the_dog/hunger_strike_tab.html ]
I don't mind stealing bread  
From the mouths of decadence
But I can't feed on the powerless  
When my cup's already over-filled
But it's on the table  
The fire is cooking  
And their farming babies
While the slaves are working  
The blood is on the table
And their mouths are choking  
But I'm growing hungry
----------------------------------

Aight - This is a very simple song to play and sing to.  
The tuning is very much like standard "G" tuning, except that 
you do not drop the "A" string.  If tuned correctly, this tab 
sounds perfect.  Feel free to send me any corrections 
(although I don't think there will be any) to Virii_116@Hotmail.com.
[Poor Andy is Pimp]                     
                                 -Sean Rippen-

Comments