Templar - Here We Go Chords & Tabs


Here We Go Chords & Tabs

Templar Chords & Tabs

Version: 1 Type: Tab 0 ratings
1 star 2 stars 3 stars 4 stars 5 stars

Here We Go Tab

Templar- Here We go
CD: Under The Sun
Tabber: Mitchell (Mitchell_J@hotmail.com)
Tuning: Standard (EADGBe)
/= slide

Templar is a KICKASS new Canadian band that were nominated (for good reason) for best
new group at the 2001 Junos. Sum 41 was up too! But Nickelback took the award, which is SWEET!
Anyways... this song here is MOSTLY keyboards, and all the guitar is very easy! Enjoy!
Any corrections or comments send an email, I like hearing from people :)

Intro riff played X4 "HERE WE GO!"
e ---------------------------
B ---------------------------
G -----------10--10--10--10--
D -9--9--9---9---9---9---9---
A -9--9--9---7---7---7---7---
E -7--7--7-------------------

It's just another sunny day in the afternoon
And the skies are turning gray, and your eyes are blue (HERE WE GO!)

Part after those lyrics: with funky keyboard loop
e ------------------------
B ------------------------
G ------------------------
D -9-9-9-9-9-9-9-9-9-10/9--
A -9-9-9-9-9-9-9-9-9-10/9--
E -7-7-7-7-7-7-7-7-7-8-/7--
[ Tab from: http://www.guitartabs.cc/tabs/t/templar/here_we_go_tab.html ]
Is there an answer in might? And I never wanted it to be this way
And I never wanted it so bad, I'll find it some other way (HERE WE GO!!)

e ----------------------------
B ----------------------------
G -----------7-7--------------
D -5-5--x-x--7-7--7-7--9-9-9--
A -5-5--x-x--5-5--7-7--9-9-9--
E -3-3--x-x-------5-5--7-7-7--

And you wonder why it could be so bad, And you give yourself away and I'm alone

I got a different point of view, and I gotta find myself some piece of mind
And there's nothing left for me to choose, I'll find it some other way (HERE WE GO!)

Assorted notes played during the bridge:
e -2--------2-------2--3--2--
B ---0--3-----0--3-----------
G ---------------------------
D ---------------------------
A ---------------------------
E ---------------------------

It's okay that you're gone now, just walk with me, ohh come undone
It's so far away from me, it's so far from me, SO FAR AWAY (repeated)

Well I know how hard you try, and through the years you've tried to hold on
Through the day, bring me down again!!! HERE WE GO (repeated)

Chords: B5 799xxx   E5 x799xx   A#5 688xxx   G5 355xxx   A5 577xxx   D5 x577xx

Tab originally from: http://diehardtabs.tripod.com