Telephone - Un Autre Monde Chords & Tabs

 

Un Autre Monde Chords & Tabs

Telephone Chords & Tabs

Version: 2 Type: Tab 0 ratings
1 star 2 stars 3 stars 4 stars 5 stars
comments

Un Autre Monde Tab

   
----------------------------------------------------------------------------
Title: Un autre monde
Artist: Téléphone
Album: Un autre monde
----------------------------------------------------------------------------
Tabbed by [LonG]©

Tuning : Standard


/ : Slide
b : Bend
h : Hammer


Intro (Guitar 2 : Louis Bertignac)
[ Tab from: http://www.guitartabs.cc/tabs/t/telephone/un_autre_monde_tab_ver_2.html ]
e |---------------|------------------|-----------------|---(7)-------------|
B |---------------|------------------|-----------------|------(7)----------|
G |---------------|--11-14/16-16/11--|---7b-7b---11----|---------(7)-------|
D |---7---9---12--|------------------|-----------------|-------------------|
A |---------------|------------------|-----------------|-------------------|
E |---------------|------------------|-----------------|-------------------|


e |---------------|------------------|---------------10|-12/14-14-12-10/9--|
B |---------------|------------------|---------10--12--|-------------------|
G |---------------|------------------|---7-9/11--------|-------------------|
D |---------------|------------------|7h9--------------|-------------------|
A |---------------|------------------|-----------------|-------------------|
E |---------------|------------------|-----------------|---------------=---|
Comments