Telephone - Le Voudou Chords & Tabs

 

Le Voudou Chords & Tabs

Telephone Chords & Tabs

Version: 2 Type: Tab 0 ratings
1 star 2 stars 3 stars 4 stars 5 stars
comments

Le Voudou Tab

   
#----------------------------------PLEASE NOTE---------------------------------#
#This file is the author's own work and represents their interpretation of the #
#song. You may only use this file for private study, scholarship, or research. #
#------------------------------------------------------------------------------##
From: parmenb7@cti.ecp.fr

			Le vaudou ( est toujours debout )

				(auteur: telephone)


Fill 1
||---------------------------||
||---------------------------||
||-------5____-----5----7----||
||-------5____-----5----7----||
||-------|---|-----|----|----||
||-------|---|-----|----|----||
   1.5   |/  |/    |/   |
  temps

Fill 2
|Guitare I
||-----------------------|---------------------||
||-----------------------|---------------------||
||-----------5___--5--7--|----------5--5--7----||
||-----------5___--5--7--|----------5--5--7----||
||-----------------------|---------------------||
||-----------------------|---------------------||
|
|Guitare II
||-----------------------|---------------------||
||-----------------------|---------------------||
||-----------------------|---------------------||
||-----7--5--------------|---7--5--------------||
||-----7--5--------------|---7--5--------------||
||-----------------------|---------------------||


C = x35553
D = x57773
F = xxx565
G = xxx787
A = x x x 9 10 9


Intro:

4x Fill 1
4x Fill 2


Couplet:

C		D 	   Fill 2
Quand je suis ne      j'ai crie

C		D            Fill 2
Ebloui par la   lumiere j'ai crie

C                  D        F                        G            Fill 2 Fill 2
Chasse du ventre de ma mere pour le meilleur ou pour l'enfer j'ai crie


C		    D           Fill 2
J'ai appris a courir comme pour parler

C		  D  	   Fill 2
Attendre le metal l'electricite, cite, cite
[ Tab from: http://www.guitartabs.cc/tabs/t/telephone/le_voudou_tab_ver_2.html ]
C	          D
Dans le fracas de la cite

F		   G
J'etais sauvage et j'ai appris

Fill 2		Fill 2  A A A A A G
A me cacher		Cacher

4x Fill 1


|Guitare I
|--------------------|----|--------------|
|--------------------|----|--------------|
|--------5-----------|----|-------5------|
|--------5---7_______|_---|-------5---7__|
|--5--7------7_______|_---|--5--7-----7__|
|--------------------|----|--------------|
|Guitare II
|--------------------|----|--------------|
|--------------------|----|--------------|
|--------------------|----|--------------|
|----------5__-5--7--|--%-|-------%------|
|----------5__-5--7--|----|--------------|
|--------------------|----|--------------|


|Guitare I
|--------------------|-----|-----|--------------|
|--------------------|-----|-----|--------------|
|--------5-----------|-----|-----|-------5------|
|--------5---7_______|_----|-----|-------5---7__|
|--5--7------7_______|_----|-----|--5--7-----7__|
|--------------------|-----|-----|--------------|
|Guitare II
|--------------------|-----|-----|--------------|
|--------------------|-----|-----|--------------|
|--------------------|-----|-----|--------------|
|----------5__-5--7--|--%--|--%--|------%-------|
|----------5__-5--7--|-----|-----|--------------|
|--------------------|-----|-----|--------------|


C                   D          F                  G         A
Dans ma ville il faisait froid et moi j'ai vite appris a me cacher

4x
    Fill 1   Fill 1
Cacher              (A me)
----------
X-Sun-Data-Type: default
X-Sun-Data-Description: default
X-Sun-Data-Name: .plan
X-Sun-Content-Lines: 12


		 /    /
	        /    /    _/
	       ___  /
	      /    /     /
	    _/   _/    _/      Autrement dit, Benoit Parmentier

Adresse : Ch 411 Residence des eleves de l'ECP
	  2,Avenue Sully Prud'homme
	  92295 Chatenay Malabry CEDEX

Tel     : 46 83 77 83
Comments