Teitur - One And Only Chords & Tabs

 

One And Only Chords & Tabs

Teitur Chords & Tabs

Version: 1 Type: Chords 0 ratings
1 star 2 stars 3 stars 4 stars 5 stars
comments

One And Only Chords

   
Teitur - One & Only
Tabbed by: Hilmar Kass Jacobsen
Email: hilmarkass@hotmail.com

Capo 4 fret.
Verse 
    E9                           E9/A
e|--0-----------------------------0---------------------------|
B|------------------------------------------------------------|
G|----------1-------------1-------------1-----------1---------|
D|------4-----4-------4-----4-------4-----4-----4-----4-------|X2
A|----2---2--------2----2---------0---0-------0---0-----------|
E|--0------------0--------------------------------------------|

Bridge 
    G#m       F#    Asus4/C#                   
e|------------------------------------------------|
B|------------------------------------------------|
G|-----4-------3--------2-------------------------|
D|-----6-------4--------2-------------------------|X2
A|-------------4--------4-------------------------|
E|-----4------------------------------------------|

Chorus:
Just play the chords..                       


Verse:
E9                                                                                    E9/A
I've been wishing on a star but I could never have imagined
E9                                                                                    E9/A
I would land just where you are after all this lonesome traveling
[ Tab from: http://www.guitartabs.cc/tabs/t/teitur/one_and_only_crd.html ]
Bridge:
G#m                F#            Asus4/C#
Took one look in your eye, reach out to hold your hand
G#m                F#            Asus4/C#
This is when I realized that I could never understand


Chorus:
     E           Asus4/C#     A        B      E  Asus4/C#  A   B
Do you want to be my one and only love?
     E           Asus4/C#     A        B      E  Asus4/C#  A   B
Do you want to be my one and only love?

Verse:
So you wanna be my friend, so you wanna be my lover
With you I do confess I can't be one without the other


Bridge:

That was hard for me to say, I hope I said it right
Which ever, come what may, you see I need to know tonight


Chorus:
      E           Asus4/C#     A        B          C#m   B  C#m    A    C#m    
Do you want to be my one and only love?



Bridge:

Do you want to play these cards, do you want to lay them down?
Do you want to run away or do you want o stick around?


Chorus:

Do you want to be my one and only love?
Do you want to be my one and only love?

Tabbed by: Hilmar Kass Jacobsen
Comments