Teitur - I Was Just Thinking Chords & Tabs

 

I Was Just Thinking Chords & Tabs

Teitur Chords & Tabs

Version: 1 Type: Tab 0 ratings
1 star 2 stars 3 stars 4 stars 5 stars
comments

I Was Just Thinking Tab

   
-------------------------------------------------------------------------------
			     I Was Just Thinking - Teitur
-------------------------------------------------------------------------------
Tabbed by: Alex Light
Email: Alex_light@hotmail.com

Capo 4th Fret

Tuning: EADGBe

INTRO        <                <          <    
e|---------222--------------------------------------------------------------|
B|---------333--------------333--------222----------------------------------|
G|---------222-------0------000--------222----------------------------------|
D|-----0-----------4--------444--------222----------------------------------|X2
A|---------------2------------------0---------------------------------------|
E|-----------------------3--------------------------------------------------|

VERSE
e|---------222--------------------------------------------------------------|
B|---------333--------------333--------222----------------------------------|
G|---------222-------0------000--------222----------------------------------|
D|-----0-----------4--------444--------222----------------------------------|X2
A|---------------2------------------0---------------------------------------|
E|-----------------------3--------------------------------------------------|

I was just thinking....


BRIDGE 1
e|------000---000----000----000----000----000-----000---000----000------000-|
B|------333---333----333----333----333----333-----333---333----333------222-|
G|------000---000----222----222----222----222-----222---222----222------222-|
D|------222---222----000----000----000----000-----000---000----000---2-----|
A|--2-------------------------------------------0------2------0--------------|
E|--0-------0------2------2------3------3------------------------------------|

And there's something inside this weary heard...
[ Tab from: http://www.guitartabs.cc/tabs/t/teitur/i_was_just_thinking_tab.html ]
e|------222----------------------------------000-----000---0-----------------|
B|------333-------------333------------------333-----333---2-----------------|
G|------222------0------000------------------222-----222---0-----------------|
D|---0--------4---------444----------------0-000--0--000---2-----------------|
A|---------2-------------------0---2---4-------------------0-----------------|
E|-------------------3-------------------------------------------------------|

VERSE
e|---------222--------------------------------------------------------------|
B|---------333--------------333--------222----------------------------------|
G|---------222-------0------000--------222----------------------------------|
D|-----0-----------4--------444--------222----------------------------------|X2
A|---------------2------------------0---------------------------------------|
E|-----------------------3--------------------------------------------------|

BRIDGE 2
e|------000---000----000----000----000----000-----000--------000--------000--|
B|------333---333----333----333----333----333-----333--------333--------333--|
G|------000---000----222----222----222----222-----222--------222--------222--|
D|------222---222----000----000----000----000-----000------0-000------0------|
A|--2-------------------------------------------0-----2--4--------0-2-4-------|
E|--0-------0------2------2------3------3------------------------3------------|

VERSE
e|---------222--------------------------------------------------------------|
B|---------333--------------333--------222----------------------------------|
G|---------222-------0------000--------222----------------------------------|
D|-----0-----------4--------444--------222----------------------------------|X2
A|---------------2------------------0---------------------------------------|
E|-----------------------3--------------------------------------------------|


e|-----222---2--2--222-------------------------------------------------------|
B|-----333---3--2--111-------------------------------------------------------|
G|-----222---2--2--222-------------------------------------------------------|
D|--0------------------------------------------------------------------------|
A|---------------------------------------------------------------------------|
E|---------------------------------------------------------------------------|



| /  slide up
| \  slide down
| h  hammer-on
| p  pull-off
| ~  vibrato
| +  harmonic
| x  Mute note
===============================================================================
Comments