Tehosekoitin - Tanaan Taallahuomenna Toisaalla Chords & Tabs

 

Tanaan Taallahuomenna Toisaalla Chords & Tabs

Tehosekoitin Chords & Tabs

Version: 1 Type: Tab 0 ratings
1 star 2 stars 3 stars 4 stars 5 stars
comments

Tanaan Taallahuomenna Toisaalla Tab

   
TEHOSEKOITIN - TANAAN TAALLA HUOMENNA TOISAALLA

tabbed by plikk at Savonlinna city

Koyhat Syntiset - pitkasoitolta


Intro:  E  A  E  A


|------------------------------------------------------|
|------------------------------------------------------|
|------------------------------------------------------|
|-2------2--4---4/6------------------------------------|
|----------------------4------2---2--4--4/6------------|
|---------------------------------------------4--------|


|------------------------------------------------------|
|------------------------------------------------------|
|----------------------4-------------------------------|
|-2------2--4---4/6--------6--4------------------------|
|---------------------------------2--4--4/6------------|
|---------------------------------------------4--------|


   E
Sa luet 
[ Tab from: http://www.guitartabs.cc/tabs/t/tehosekoitin/tanaan_taallahuomenna_toisaalla_tab.html ]
                 G#5
Ma katson kun sa luet

               A
Tai oikeastaan sua

               E    H5
Sa oot aika ihana


   E
Mmmm

                G#5
Sun kates hentoiset

                  A
Sun hiukses silkkiset

                 E
Ma taidan rakastua



          Em
Ma haluun sut


Ma haluun vaikka tiedan ja muistan


Etten muista

     C5       D5           Em
Etta rakastin joskus aivan toista

       C5          D5
Ja kun unohdus sut poistaa

              Em
Mulle silmasi loistaa

     C5        D5      Em
Enaa kansiossa valokuvien



Hei
Ma paatan keskeyttaa
Sut vaikka kesken jaa
Kenties jotain jannaa

Anna pusu
Anna suudelmakin
Ma susta kumminkin
Pidan vaikkei taa ikuista oo

Ma haluun sut...

Tanaan taalla, Huomenna toisaalla
Comments