Tegan And Sara - Where Does The Good Go Chords & Tabs

 

Where Does The Good Go Chords & Tabs

Tegan And Sara Chords & Tabs

Version: 1 Type: Bass Tab 0 ratings
1 star 2 stars 3 stars 4 stars 5 stars
comments

Where Does The Good Go Bass Tab

song: where does the good go
artist: tegan and sara
tuning: standard
tabber: chris barry

G||---------------------------------------------|
D||--6-6865-565---5-----------------------------|
A||------------8-8-87--7--7---------------------|X5
E||---------------------------------------------|

G||-----------------------------------------------|
D||-----------------------------------------------|
A||-6-6-6-6-5-5-5-5-------------------------------|X3
E||-----------------------------------------------|

G||----------------------------------------------|
D||----------------------------------------------|
A||-6-6--6--6--5--5--5--5------------------------|X1
E||--6--6--6--6--6--6--6--6----------------------|

repeat that whole thing 3 times
[ Tab from: http://www.guitartabs.cc/tabs/t/tegan_and_sara/where_does_the_good_go_btab.html ]
G||----------------------------------------------|
D||----------------------------------------------|
A||-6-6-6-6-5-5-5-5------------------------------|X3
E||----------------------------------------------|

G||----------------------------------------------|
D||----------------------------------------------|
A||-6-6--6--6--5--5--5--5------------------------|X1
E||--6--6--6--6--6--6--6--6----------------------|

then repeat these parts 3 times

G||----------------------------------------------|
D||----------------------------------------------|
A||-6-6-6-6-5-5-5-5------------------------------|X2
E||----------------------------------------------|

ending:

G||----------------------------------------------|
D||----------------------------------------------|
A||-6~~~~~---------------------------------------|X2
E||----------------------------------------------|

enjoy.
Comments