Tegan And Sara - Walking With A Ghost Chords & Tabs

 

Walking With A Ghost Chords & Tabs

Tegan And Sara Chords & Tabs

Version: 2 Type: Tab 0 ratings
1 star 2 stars 3 stars 4 stars 5 stars
comments

Walking With A Ghost Tab

VERSE
  no matter   way  you go...
e----x--x-----x--x-----x--x-----x---x--|
B---10-10-----x--x-----x--x-----x---x--|
G---11-11----11-11----13-13----13--11--|      (x4)
D---11-11----12-12----14-14----14--12--|   
A----9--9----12-12----14-14----14--12--|
E----x--x----10-10----12-12----12--10--|

CHORUS
     i was    walking  ghost.   i   said...

e----x--x-----x--x-----x--x-----x---x--I
B----5--5-----x--x-----x--x-----x---x--I
G----6--6-----6--6-----7--7-----7---6--I      (x4)
D----6--6-----7--7-----9--9-----9---7--I
A----4--4-----7--7-----9--9-----9---7--I
E----x--x-----5--5-----7--7-----7---5--I

VERSE

CHORUS

VERSE (with different vocal)
    i was    walking  ghost.   i said...
e----x--x-----x--x-----x--x-----x---x--|
B---10-10-----x--x-----x--x-----x---x--|
G---11-11----11-11----13-13----13--11--|      (x2)
D---11-11----12-12----14-14----14--12--|   
A----9--9----12-12----14-14----14--12--|
E----x--x----10-10----12-12----12--10--|

out of my mind     out of        mind    
     e----x--x-----x--x-----x--x-----x---x--|
     B---10-10-----x--x-----x--x-----x---x--|
     G---11-11----11-11----13-13----13--11--|      (x2)
     D---11-11----12-12----14-14----14--12--|   
     A----9--9----12-12----14-14----14--12--|
     E----x--x----10-10----12-12----12--10--|
[ Tab from: http://www.guitartabs.cc/tabs/t/tegan_and_sara/walking_with_a_ghost_tab_ver_2.html ]
BRIDGE
out of my mind     out of        mind    
     e----x--x-----x--x-----x--x-----x---x--|
     B---10-10-----x--x-----x--x-----x---x--|
     G---11-11----11-11----13-13----13--11--|      (x1)
     D---11-11----12-12----14-14----14--12--|   
     A----9--9----12-12----14-14----14--12--|
     E----x--x----10-10----12-12----12--10--|

out of my mind     out of my     mind   
     e----x--x-----x--x-----x--x-----x---x--I
     B----5--5-----x--x-----x--x-----x---x--I
     G----6--6-----6--6-----7--7-----7---6--I      (x1)
     D----6--6-----7--7-----9--9-----9---7--I
     A----4--4-----7--7-----9--9-----9---7--I
     E----x--x-----5--5-----7--7-----7---5--I

out of my mind     out of        mind    
     e----x--x-----x--x-----x--x-----x---x--|
     B---10-10-----x--x-----x--x-----x---x--|
     G---11-11----11-11----13-13----13--11--|      (x2)
     D---11-11----12-12----14-14----14--12--|   
     A----9--9----12-12----14-14----14--12--|
     E----x--x----10-10----12-12----12--10--|

OUTRO
     i   was  walking  ghost
e----x--x-----x--x-----x--x-----x---x--|
B---10-10-----x--x-----x--x-----x---x--|
G---11-11----11-11----13-13----13--11--|      (x3)
D---11-11----12-12----14-14----14--12--|   
A----9--9----12-12----14-14----14--12--|
E----x--x----10-10----12-12----12--10--|

Chords are right, but muting might not be exact. As for strumming, mostly it's:
da da x  x, da da x  x, da da x  x, da, da, etc. Tried to line words up with
strumming as accurately as possible. Got this from an acoustic (and better)
version of the song, I think outro might be four on So Jealous, but y'all can
handle that.
Comments