Tegan And Sara - My Number Chords & Tabs

 

My Number Chords & Tabs

Tegan And Sara Chords & Tabs

Version: 1 Type: Tab 0 ratings
1 star 2 stars 3 stars 4 stars 5 stars
comments

My Number Tab

Capo 7th fret

intro and verses
e----------------------------------------------|
b----------------------------------------------|
g----------------------------------------------|x 16
d----------------------------------------------|
a----------------2-2-2-22----2-2-2-22222-2-22--|
E---7-7-7-77-----------------3-3-3-33333-3-33--|

Chorus
[ Tab from: http://www.guitartabs.cc/tabs/t/tegan_and_sara/my_number_tab.html ]
e---------------------------------------------------------------/
b---------------------------------------------------------------/
g---------------------------------------------------------------/ x 2
d--2-2-2-222222-2-22--------------------------------------------/
a--3-3-3-333333-3-33---2-2-2-222222-2-22----------------2-2-2-22/
E----------------------3-3-3-333333-3-33----7-7-7-77------------/

Chorus Cont..

e------------------------------------------------------------|
b------------------------------------------------------------|
g------------------------------------------------------------|
d-----------------------2-2-2-22-----------------------------|
a--2-2-2-222222-2--22---3-3-3-33------------2-2-2-222222-2-22|
E--3-3-3-333333-3--33-------------2-2-2-22--3-3-3-333333-3-33|

This is my first tab, but its pretty easy, just listen to the
song, it should be right! if not let me know at gastc2000@yahoo.com
Comments