Tegan And Sara - I Cant Take It Chords & Tabs

 

I Cant Take It Chords & Tabs

Tegan And Sara Chords & Tabs

Version: 2 Type: Tab

I Cant Take It Tab

----------------------------------I can't take it - Tegan and Sara---------------------------|
---------------------------------------------------------------------------------------------|
I saw that there weren't any good tabs on this song, so I decided to tab it myself,
so here it is.....

--------------------------------------------------------------------------------------------
Guitar 1 - rhythm

Guitar 2 - Lead

Standard Tuning

S - Slide

----------------------------------------------------------------------------------------------
Intro

Guitar 1

E------------- -------------|
B------3------ ---------3---|
G-----------x4 ---------0---|x4
D------------- -------------|
A------------- -------------|
E--3-3-------- --0-0-0------|

Chorus - "Don't move so slow"

Guitar 1
E--------------------------------|
B--------------------------------|
G------9---------7---------5-----|
D------9---------7---------5-----|
A--7-7----7--5-5----5--3-3-------|
E--------------------------------|


Guitar 2

E--------7s8s7------10--------------------|
B-8--10-----------------10--8-------------|
G-----------------------------------------|
D-----------------------------------------|
A-----------------------------------------|
E-----------------------------------------|

Verse Two

Guitar 1

E------------- -------------|
B------3------ ---------3---|
G-----------x4 ---------0---|x4
D------------- -------------|
A------------- -------------|
E--3-3-------- --0-0-0------|


Guitar Two

E--10-------------|
B------10-----10--|
G----------7------|
D-----------------|
A-----------------|
E-----------------|


Chorus - "Don't move so slow"

E--------------------------------|
B--------------------------------|
G------9---------7---------5-----|
D------9---------7---------5-----|
A--7-7----7--5-5----5--3-3-------|
E--------------------------------|


Guitar 2
[ Tab from: http://www.guitartabs.cc/tabs/t/tegan_and_sara/i_cant_take_it_tab_ver_2.html ]
E--------7s8s7------10--------------------|
B-8--10-----------------10--8-------------|
G-----------------------------------------|
D-----------------------------------------|
A-----------------------------------------|
E-----------------------------------------|


Bridge "I can't take it"

Guitar 1

E------------------------------------|
B------------------------------------|
G--7------------5--------------------|
D--7------------5--------------------|
A--5--repeat----3--x8----------------|
E------------------------------------|


" I can't wo wo..."

Guitar 1

E--------------------------------|
B--------------------------------|
G------9---------7---------5-----|
D------9---------7---------5-----|
A--7-7----7--5-5----5--3-3-------|
E--------------------------------|

Guitar 2

E----------------------------------------10----|
B-10-12-10-----------------10--12--10----------|
G-----------12--9----------------------12------|
D----------------------------------------------|
A----------------------------------------------|
E----------------------------------------------|


Bridge "I can't take it"

Guitar 1

E---------------------------------------|
B---------------------------------------|
G--9-------------7----------------------|
D--9--Repeat-----7----------------------|
A--7-------------5----------------------|
E---------------------------------------|

" I can't wo wo..."

Guitar 1

E--------------------------------|
B--------------------------------|
G------9---------7---------5-----|
D------9---------7---------5-----|
A--7-7----7--5-5----5--3-3-------|
E--------------------------------|

Guitar 2

E----------------------------------------10-----|
B-10-12-10-----------------10--12--10-----------|
G-----------12--9----------------------12-------|
D-----------------------------------------------|
A-----------------------------------------------|
E-----------------------------------------------|

------------------------------------------------------------------------------------
Thanks for checking out my tab!, If you wish to contact me about the tab my e-mails silvie123@hotmail.com.