Teeth - Shooting Star Chords & Tabs

 

Shooting Star Chords & Tabs

Teeth Chords & Tabs

Version: 1 Type: Tab 0 ratings
1 star 2 stars 3 stars 4 stars 5 stars
comments

Shooting Star Tab

                        "SHOOTING STAR" BY TEETH
                         transcribed by:freon   
                  visit me at:freongang_81@yahoo.com
                        freongang_08@yahoo.com

         
 intro: X4
e|-----------------1-1-1-1-1-1-1-1----|
B|-3-3-3-3-3-3-3-3-1-1-1-1-1-1-1-1----|
G|-3-3-3-3-3-3-3-3-1-1-1-1-1-1-1-1----|
D|-1-1-1-1-1-1-1-1-1-1-1-1-1-1-1-1----|
A|------------------------------------|
E|------------------------------------|

e|-7-7-7-7-5-5-5-5-7-7-7-7-5-5-5-5----|
B|-7-7-7-7-5-5-5-5-7-7-7-7-5-5-5-5----|
G|------------------------------------|
D|------------------------------------|
A|------------------------------------|
E|------------------------------------|

    inside            my                 mind
e|----------------------------------------------------|
B|----------------------------------------------------|
G|-----------------5-5-5-5-5-5-5-5--------------------|
D|-5-5-5-5-5-5-5-5-5-5-5-5-5-5-5-5--3-3-3-3-3-3-3-3---|
A|-5-5-5-5-5-5-5-5-3-3-3-3-3-3-3-3--3-3-3-3-3-3-3-3---|
E|-3-3-3-3-3-3-3-3------------------1-1-1-1-1-1-1-1---|
[ Tab from: http://www.guitartabs.cc/tabs/t/teeth/shooting_star_tab.html ]
 im waiting for you...
e|-----------------------------|
B|-----------------------------|
G|-----------------------------|
D|-1-1-1-1--3b--1-1-1-1--3b----|
A|-1-1-1-1--3b--1-1-1-1--3b----|
E|-0-0-0-0------0-0-0-0--------|

    inside            my                 mind
e|----------------------------------------------------|
B|----------------------------------------------------|
G|-----------------5-5-5-5-5-5-5-5--------------------|
D|-5-5-5-5-5-5-5-5-5-5-5-5-5-5-5-5--3-3-3-3-3-3-3-3---|
A|-5-5-5-5-5-5-5-5-3-3-3-3-3-3-3-3--3-3-3-3-3-3-3-3---|
E|-3-3-3-3-3-3-3-3------------------1-1-1-1-1-1-1-1---|

      im          searching & waiting        for you        
e|-------------------------------------------------------|
B|-------------------------------------------------------|
G|-----------------5-5-5-5-------------------------------|
D|-5-5-5-5-5-5-5-5-5-5-5-5-3-3-3-3-------7-7-7-7-7-7-7-7-|
A|-5-5-5-5-5-5-5-5-3-3-3-3-3-3-3-3-------7-7-7-7-7-7-7-7-|
E|-3-3-3-3-3-3-3-3---------1-1-1-1-------5-5-5-5-5-5-5-5-|

  are you happy with the shooting star... X4
e|-----------------1-1-1-1-1-1-1-1----|
B|-3-3-3-3-3-3-3-3-1-1-1-1-1-1-1-1----|
G|-3-3-3-3-3-3-3-3-1-1-1-1-1-1-1-1----|
D|-1-1-1-1-1-1-1-1-1-1-1-1-1-1-1-1----|
A|------------------------------------|
E|------------------------------------|
Comments