Teer - Up Side Down Chords & Tabs

 

Up Side Down Chords & Tabs

Teer Chords & Tabs

Version: 2 Type: Tab 0 ratings
1 star 2 stars 3 stars 4 stars 5 stars
comments

Up Side Down Tab

teer/up side down


    intro
E------------------------------------------------------------------------------|
B------------------------------------------------------------------------------|
G--7-7-7-7-7-7-7-7-\-9-9-9-9-9-9-9-9-------------------------------------------|
D--7-7-7-7-7-7-7-7---9-9-9-9-9-9-9-9--9-9-9-9-9-9-9-9-\-5-5-5-5-5-5-5-5--------|
A--5-5-5-5-5-5-5-5-\-7-7-7-7-7-7-7-7--9-9-9-9-9-9-9-9---5-5-5-5-5-5-5-5--------|
E-------------------------------------7-7-7-7-7-7-7-7-\-3-3-3-3-3-3-3-3--------|

E------------------------------------------------------------------------------|
B------------------------------------------------------------------------------|
G--7-7-7-7-7-7-7-7-\-9-9-9-9-9-9-9-9-------------------------------------------|
D--7-7-7-7-7-7-7-7---9-9-9-9-9-9-9-9--9-9-9-9-9-9-9-9-\-5-5-5-5-5-5-5-5--------|
A--5-5-5-5-5-5-5-5-\-7-7-7-7-7-7-7-7--9-9-9-9-9-9-9-9---5-5-5-5-5-5-5-5--------|
E-------------------------------------7-7-7-7-7-7-7-7-\-3-3-3-3-3-3-3-3--------|

[ Tab from: http://www.guitartabs.cc/tabs/t/teer/up_side_down_tab_ver_2.html ]
                          chorus
E------------------------------------------------------------------------------|
B------------------------------------------------------------------------------|
G--5-5-5-5-5-5-5-5-------------------------------------------------------------|
D--5-5-5-5-5-5-5-5--5-5-5-5-5-5-5-5--9-9-9-9-9-9-9-9--5-5-5-5-5-5-5-5----------|
A--3-3-3-3-3-3-3-3--5-5-5-5-5-5-5-5--9-9-9-9-9-9-9-9--5-5-5-5-5-5-5-5----------|
E-------------------3-3-3-3-3-3-3-3--7-7-7-7-7-7-7-7--3-3-3-3-3-3-3-3----------|

                         palm muting
e|--------------------------------------------------------------------|
B|--------------------------------------------------------------------|
G|-4-4-4-4-4-4-4-4-----------------4-4-4-4-4-4-4-4--------------------|
D|-4-4-4-4-4-4-4-4-4-4-4-4-4-4-4-4-4-4-4-4-4-4-4-4-4-4-4-4-4-4-4-4----|
A|-2-2-2-2-2-2-2-2-4-4-4-4-4-4-4-4-2-2-2-2-2-2-2-2-4-4-4-4-4-4-4-4----|
E|-----------------2-2-2-2-2-2-2-2-----------------2-2-2-2-2-2-2-2----|

                            ending
e|--------------------------------------------------------------------|
B|--------------------------------------------------------------------|
G|--4---4---4---4-----------------------------------------------------|
D|------------------4---4---4---4---6---6---6---6---4---4---4---4-----|
A|--------------------------------------------------------------------|
E|--------------------------------------------------------------------|
end.
Comments