Teer - Screw Driver Chords & Tabs

 

Screw Driver Chords & Tabs

Teer Chords & Tabs

Version: 2 Type: Tab 0 ratings
1 star 2 stars 3 stars 4 stars 5 stars
comments

Screw Driver Tab

teer/screw driver


       intro

E---------------------------|
B---------------------------|
G---------------------------|
D----3-3-2-3-2---5-3-2------| 3 times
A-0-----------3-------------|
E---------------------------|

e------------------|
B---4-5----5-------|
G-4-4-4----4-------|
D-4-4-0-4--0-4-----|
A-2-2-2-4--2-4-----|
E-------2----2-----|

e-------------------------------------------------------------------|
B-------------------------------------------------------------------|
G-------------------------------------------------------------------|
D---4-5-7-5-4-----------------1-2-4-2-1-----------------------------|
A-5--------------4-5-7-5-4--2--------------5---5--------------------|
E--------------5-------------------------3---3----------------------|
[ Tab from: http://www.guitartabs.cc/tabs/t/teer/screw_driver_tab_ver_2.html ]
e--------------------------------------------------------------------|
B--------------------------------------------------------------------|
G-777-------444-------777-------444----------------------------------|
D-777--777--444--555--777-------444----------------------------------|
A-555--777--222--555--555--777--222--555-----------------------------|
E------555-------333-------555-------333-----------------------------|


e---------------------------------------------------------------------|
B---------------------------------------------------------------------|
G-7-------------------------4-----------------------------------------|
D-7-4-5-7-5-4--7------------4-1-2-4-2-1-------------------------------|
A-5------------7-4-5-7-5-4--2--------------5---5----------------------|
E--------------5-------------------------3---3------------------------|
Comments