Teenage Fanclub - Neil Jung Chords & Tabs

 

Neil Jung Chords & Tabs

Teenage Fanclub Chords & Tabs

Version: 2 Type: Bass Tab 0 ratings
1 star 2 stars 3 stars 4 stars 5 stars
comments

Neil Jung Bass Tab

TEENAGE FANCLUB - NEIL JUNG


INTRO:

G|-----------------------------------------------------| X2
D|-----------------------------------------------------|
A|---------------5--0-5-5--7-0--0-0-0--0-5--5-3--3-----|
E|--3--3-3-3--3------------------------------------3---|

VERS 1&2:

G|-----------------------------------------------------| X2 
D|-----------------------------------------------------|
A|---------------5--0-5-5--7-0--0-0-0--0-5--5-3--3-----|
E|--3--3-3-3--3----------------------------------------|

G|-----------------------------------------------------|  
D|-----------------------------------------------------|
A|---------------5--0-5-5--7-0--0-0-0--0-5--5-3--3--2--|
E|--3--3-3-3--3----------------------------------------|

G|-----------------------------------------------------|
D|------------2-----2-2--4-5---------------------------|
A|-----2-2-2----2-----------0--0-0-0--2-4--5--5-3--3-2-|
E|--2--------------------------------------------------|

G|-----------------------------------------------------|
D|------------2---2-0----------------------------------|
A|-----2-2-2----2-----2---0--0-0-0-2-0-5--5-3-2-0------|
E|--2-------------------3------------------------------|

CHORUS:

G|-----------------------------------------------------|
D|-----------------------------------------------------|
A|---------------5----5\-0--0-2--2-3--3-5-7-5----------|
E|--3--3-3--3------------------------------------------|

G|-----------------------------------------------------|
D|-----------------------------------------------------|
A|---------------5--5-5--5-0--0-2--2-3-3-5-7-5---------|
E|--3--3-3--3------------------------------------------|

VERS 3:

G|-----------------------------------------------------|  
D|-----------------------------------------------------|
A|---------------5--0-5-5--7-0--0-0-0--0-5--5-3--3-----|
E|--3--3-3-3--3----------------------------------------|

G|-----------------------------------------------------|  
D|-----------------------------------------------------|
A|---------------5--0-5-5--7-0--0-0-0--0-5--5-3--3--2--|
E|--3--3-3-3--3----------------------------------------|

G|-----------------------------------------------------|
D|------------2-----2-2--4-5---------------------------|
A|-----2-2-2----2-----------0--0-0-0--2-4--5--5-3--3-2-|
E|--2--------------------------------------------------|

G|-----------------------------------------------------|
D|------------2---2-0----------------------------------|
A|-----2-2-2----2-----2---0--0-0-0-2-0-5--5-3-2-0------|
E|--2-------------------3------------------------------|

CHORUS:

G|-----------------------------------------------------|
D|-----------------------------------------------------|
A|---------------5----5\-0--0-2--2-3--3-5-7-5----------|
E|--3--3-3--3------------------------------------------|

G|-----------------------------------------------------|
D|-----------------------------------------------------|
A|---------------5--5-5--5-0--0-2--2-3-3-5-7-5---------|
E|--3--3-3--3------------------------------------------|

MIDDLE RIFF:
[ Tab from: http://www.guitartabs.cc/tabs/t/teenage_fanclub/neil_jung_btab_ver_2.html ]
G|-----------------------------------------------------|
D|------------2-----2-2--4-5---------------------------|
A|-----2-2-2----2-----------0--0-0-0--2-4--5--5-3--3-2-|
E|--2--------------------------------------------------|

G|-----------------------------------------------------|
D|------------2---2-0----------------------------------|
A|-----2-2-2----2-----2---0--0-0-0-2-0-5--5-3-2-0------|
E|--2-------------------3------------------------------|

CHORUS:

G|-----------------------------------------------------|
D|-----------------------------------------------------|
A|---------------5----5\-0--0-2--2-3--3-5-7-5----------|
E|--3--3-3--3------------------------------------------|

G|-----------------------------------------------------|
D|-----------------------------------------------------|
A|---------------5--5-5--5-0--0-2--2-3-3-5-7-5---------|
E|--3--3-3--3------------------------------------------|

G|-----------------------------------------------------|
D|-----------------------------------------------------|
A|--0--0-2--2-3--3-5-5--0--0-2--2-3--3-5-5-------------|
E|-----------------------------------------------------|

G|-----------------------------------------------------|
D|-----------------------------------------------------|
A|--0--0-2--2-3--3-5--5-0-5-5--0--5--5--5--5-----------|
E|-----------------------------------------------------|

SOLO:

G|-----------------------------------------------------|  
D|-----------------------------------------------------|
A|---------------5--0-5-5--7-0--0-0-0--0-5--5-3--3-----|
E|--3--3-3-3--3----------------------------------------|

G|-----------------------------------------------------|  
D|-----------------------------------------------------|
A|---------------5--0-5-5--7-0--0-0-0--0-5--5-3--3--2--|
E|--3--3-3-3--3----------------------------------------|

G|-----------------------------------------------------|
D|------------2-----2-2--4-5---------------------------|
A|-----2-2-2----2-----------0--0-0-0--2-4--5--5-3--3-2-|
E|--2--------------------------------------------------|

G|-----------------------------------------------------|
D|------------2---2-0----------------------------------|
A|-----2-2-2----2-----2---0--0-0-0-2-0-5--5-3-2-0------|
E|--2-------------------3------------------------------|

G|-----------------------------------------------------|  
D|-----------------------------------------------------|
A|---------------5--0-5-5--7-0--0-0-0--0-5--5-3--3-----|
E|--3--3-3-3--3----------------------------------------|

G|-----------------------------------------------------|  
D|-----------------------------------------------------|
A|---------------5--0-5-5--7-0--0-0-0--0-5--5-3--3--2--|
E|--3--3-3-3--3----------------------------------------|

G|-----------------------------------------------------|
D|------------2-----2-2--4-5---------------------------|
A|-----2-2-2----2-----------0--0-0-0--2-4--5--5-3--3-2-|
E|--2--------------------------------------------------|

G|-----------------------------------------------------|
D|------------2---2-0----------------------------------|
A|-----2-2-2----2-----2---0--0-0-0-2-0-5--5-3-2-0------|
E|--2-------------------3-------------------------3-3--|
Comments