Teen Idols - Just Friends Chords & Tabs

 

Just Friends Chords & Tabs

Teen Idols Chords & Tabs

Version: 1 Type: Tab 0 ratings
1 star 2 stars 3 stars 4 stars 5 stars
comments

Just Friends Tab

-------------------------------------------------------------------
                           Teen Idols - Just Friends
-------------------------------------------------------------------

Intro/Chorus:
e|----------------------|---------------------|
B|------------(x2)------|---------------------|
G|--7-------------------|-------7\6-----------|
D|--7---7---5---5-4-2-4-|-5--7--7\6--5--5--7--|
A|--5---7---5---5-4-2-4-|-5--7--5\4--5--5--7--|
E|------5---3---3-2-0-2-|-3--5-------3--3--5--|

Pre Chorus/Verse:
e|------------------------------------------------|
B|------------------------------------------------|
G|-7-7-x-x-x--7-7-x-x-x--7-7-x-x-x----------------|
D|-7-7-x-x-x--7-7-x-x-x--7-7-x-x-x--5--7----------|
A|-5-5-x-x-x--5-5-x-x-x--5-5-x-x-x--5--7----------|
E|----------------------------------3--5---(x2)---|
[ Tab from: http://www.guitartabs.cc/tabs/t/teen_idols/just_friends_tab.html ]
Verse:
e|---------------------------------------------------|
B|---------------------------------------------------|
G|--7-----------7-------------------7\6--------------|
D|--7-----5--7--7-----5--7----5--7--7\6--5--5--7-----|
A|--5-----5--7--5-----5--7----5--7--5\4--5--5--7-----|
E|--------3--5--------3--5----3--5-------3--3--5-----|

Pre Chorus/Verse

Verse

Intro/Chorus

Pre Chorus/Verse

Solo:
e|------------------------------------------------5-5-3-2---|
B|-7-7-7-7-7-5-3h5-3-5-5-3-2-3--7-7-7-7-7-5-3h5-3---------3-|
G|----------------------------------------------------------|
D|----------------------------------------------------------|
A|----------------------------------------------------------|
E|----------------------------------------------------------|

-3-2h3p2---3-2h3p3---3-2-3-5-3-3-2----10-10-10-10-10-9-7h9-10~-|
---------3---------3---------------3/--------------------------|
---------------------------------------------------------------|
---------------------------------------------------------------|
---------------------------------------------------------------|
---------------------------------------------------------------|

Pre Chorus/Verse (guitar 1 rings out over)

Intro/Chorus

End on D5
Comments