Tedeschi Trucks Band - Midnight In Harlem Chords & Tabs

 

Midnight In Harlem Chords & Tabs

Tedeschi Trucks Band Chords & Tabs

Version: 2 Type: Tab 0 ratings
1 star 2 stars 3 stars 4 stars 5 stars
comments

Midnight In Harlem Tab

Opening Riff 
Open E Tuning
[ Tab from: http://www.guitartabs.cc/tabs/t/tedeschi_trucks_band/midnight_in_harlem_tab_ver_2.html ]
E-------0-------0---------0--------0--------0-------0--------0---0---|
B-----0---0--2----2----2/4--4----2----0---0----0--2---2---2/4--4---5-|
G#---3--------------3---------3---------3--------------3-------------|
E--------------------------------------------------------------------|
B--------------------------------------------------------------------|
E--------------------------------------------------------------------|

E-----------------5--------------------|
B----7/9/7----7/9----9/7---------------|
G#---5-5-5--- 5-5----5-5---------------| 
E----5-5-5----5-5----5-5---------------|
B--------------------------------------|
E--------------------------------------|

Website= https://www.derekandsusan.net/
Comments