Ted Nugent - Yank Me Crank Me Chords & Tabs

 

Yank Me Crank Me Chords & Tabs

Ted Nugent Chords & Tabs

Version: 1 Type: Tab 0 ratings
1 star 2 stars 3 stars 4 stars 5 stars
comments

Yank Me Crank Me Tab

                              TED NUGENT
                           YANK ME CRANK ME


STANDARD TUNING
EADGBe


intro
--8/99999999-8/99999999-8/99999999/1515151515151515---
--7/88888888-7/88888888-7/88888888/1414141414141414---
------------------------------------------------------
------------------------------------------------------
------------------------------------------------------
------------------------------------------------------
[ Tab from: http://www.guitartabs.cc/tabs/t/ted_nugent/yank_me_crank_me_tab.html ]
---------------------------------------------------5b-----
-------------------------------------------------5--------
-------5---5-7---5---5-7-7br7p5----5---5-7-7-5------------
-------5---5-7---5---5-7-------7---5---5-7-----7----------
---0-0---0-----0---0-------------0---0--------------------
----------------------------------------------------------

------------------------------------------8/99999999--
------------------------------------------7/88888888--
-----5---5-7---5---5-7-7br7p5-----5---5-7-------------
-----5---5-7---5---5-7--------7---5---5-7-------------
-0-0---0-----0---0--------------0---0-----------------
------------------------------------------------------

-----------------------------------
-----------------------------------
-----5---5-7---5---5-7-7br7p5------
-----5---5-7---5---5-7--------7----x4
-0-0---0-----0---0-----------------
-----------------------------------

thats the most of the song
peace
Comments