Ted Nugent - Stormtroopin Chords & Tabs

 

Stormtroopin Chords & Tabs

Ted Nugent Chords & Tabs

Version: 2 Type: Tab 0 ratings
1 star 2 stars 3 stars 4 stars 5 stars
comments

Stormtroopin Tab

             E|--------------------------------------
             B|--------------------------------------
             G|------5-7-----5-7-----5-7-----------0-
             D|------5-7-----5-7-----5-7-----0---2--- Do 5x's
             A|----------------------------2---3-----
             E|--5-5-----5-5-----5-5-----3-----------
               
             E|-----12-12-12-
             B|-----15-15-15-
             G|--------------
             D|-9-9----------
             A|-7-7----------
             E|--------------
             
             E|--------------------------------------
             B|--------------------------------------
             G|------5-7-----5-7-----5-7-----------0-
             D|------5-7-----5-7-----5-7-----0---2--- Do 4x's
             A|----------------------------2---3-----
             E|--5-5-----5-5-----5-5-----3-----------
[ Tab from: http://www.guitartabs.cc/tabs/t/ted_nugent/stormtroopin_tab_ver_2.html ]
             E|-------------------------------------------------------------|
             B|-------------------------------------------------------------|
             G|-------------------------------------------------------------|
             D|-7-7-7-7-7--9-10-10-10-10-10--12--5-5-5-5-5--7--8-8-8-8-8--10|
             A|-5-5-5-5-5--7--8--8--8--8--8--10--3-3-3-3-3--5--6-6-6-6-6---8|
             E|-------------------------------------------------------------|
             
             E|-------------------------------------------------------------
             B|-------------------------------------------------------------
             G|-------------------------------------------------------------
             D|-7-7-7-7-7--9-10-10-10-10-10--12--5-5-5-5-5--7--8-8-8-8-8--10
             A|-5-5-5-5-5--7--8--8--8--8--8--10--3-3-3-3-3--5--6-6-6-6-6---8
             E|-------------------------------------------------------------
             
             E|-----12-12-12-
             B|-----15-15-15-
             G|--------------
             D|-9-9----------
             A|-7-7----------
             E|--------------

             E|--------------------------------------
             B|--------------------------------------
             G|------5-7-----5-7-----5-7-----------0-
             D|------5-7-----5-7-----5-7-----0---2--- Do 2x's
             A|----------------------------2---3-----
             E|--5-5-----5-5-----5-5-----3-----------
                        During Solo
             E|-----------------------------------------
             B|-----------------------------------------
             G|--------0--------------0---------------0-
             D|---0---2----------0---2-----------0---2--
             A|--2---3----------2---3-----------2---3---
             E|-3-------5-5-5--3--------5-5-5--3--------

             E|--------------------------------------
             B|--------------------------------------
             G|------5-7-----5-7-----5-7-----------0-
             D|------5-7-----5-7-----5-7-----0---2--- Do 4x's
             A|----------------------------2---3-----
             E|--5-5-----5-5-----5-5-----3-----------

             E|-----12-12-12-
             B|-----15-15-15-
             G|--------------
             D|-9-9----------
             A|-7-7----------
             E|--------------

             E|--------------------------------------
             B|--------------------------------------
             G|------5-7-----5-7-----5-7-----------0-
             D|------5-7-----5-7-----5-7-----0---2--- Do 3x's
             A|----------------------------2---3-----
             E|--5-5-----5-5-----5-5-----3-----------
Comments