Ted Nugent - Snakeskin Cowboys Chords & Tabs

 

Snakeskin Cowboys Chords & Tabs

Ted Nugent Chords & Tabs

Version: 2 Type: Tab 0 ratings
1 star 2 stars 3 stars 4 stars 5 stars
comments

Snakeskin Cowboys Tab

   
Title: Snakeskin Cowboys
Artist: Ted Nugent

Tabbed by:Darian
Email:scotty__13@hotmail.com

Tuning:Standard(EADGBe)

Intro
e|--------------------------------|
B|--------------------------------|
G|--------------------------------|
D|----------5-4---5-4----------9--|X2
A|------5----------------5-4-5-7--|
E|-7------7-----------5-----------|

Bridge
e|---------------------------------------------------------|
B|---------------------------------------------------------|
G|----------------------------2-2--2-2-2-------------------|
D|-4-4--4-4-4--7--7-7--7-7-7--2-2--2-2-2--2--2-2--2-2-2-2--|X2
A|-2-2--2-2-2--5--5-5--5-5-5--0-0--0-0-0--2--2-2--2-2-2-2--|
E|----------------------------------------0--0-0--0-0-0-0--|
[ Tab from: http://www.guitartabs.cc/tabs/t/ted_nugent/snakeskin_cowboys_tab_ver_2.html ]
Verse(palm muted)
e|---------------------------------------------------------|
B|---------------------------------------------------------|
G|----------------------------2-2--2-2-2-------------------|
D|-4-4--4-4-4--7--7-7--7-7-7--2-2--2-2-2--2--2-2--2-2-2-2--|X2
A|-2-2--2-2-2--5--5-5--5-5-5--0-0--0-0-0--2--2-2--2-2-2-2--|
E|----------------------------------------0--0-0--0-0-0-0--|
Snakeskin     cowboys        who d'hell  d'you think you are?
Runnin around in your high-heeled boots, don't think that you'll get too far
Just hangin'  'round          with your  fancy pants on 
Ain't got      nuthin' on                me
Thinkin' you got                         (beats me???)

Chorus(hold notes)
e|---------------------------------------------------------|
B|---------------------------------------------------------|
G|----------------------------2----------------------------|
D|-4-----------7--------------2-----------2----------------|
A|-2-----------5--------------0-----------2----------------|
E|----------------------------------------0----------------|
Stick around boys,            maybe I can set you free

| /  slide up
| \  slide down
| h  hammer-on
| p  pull-off
| ~  vibrato
|(5) harmonic
| x  mute note
| b  bend note
=============================================================================
Comments