Ted Nugent - Pentatonic E Minor Lick Chords & Tabs

 

Pentatonic E Minor Lick Chords & Tabs

Ted Nugent Chords & Tabs

Version: 1 Type: Tab 0 ratings
1 star 2 stars 3 stars 4 stars 5 stars
comments

Pentatonic E Minor Lick Tab

Ted Nugent E minor Pentatonic Lick

                                                                                
E------------------------------------|------------------------------------------
B---------------------------s--------|------------------------------------------
G------9--------7-----9--7--9-----9--|------------------------------------------
D---------9--------------------------|------------------------------------------
A------------------------------------|------------------------------------------
E------------------------------------|------------------------------------------
                                                                                

                                                                                
E------------------------------------------------|------------------------------
B---------------------------------------------5--|------------------------------
G---9--9--9--------------------------------------|------------------------------
D------------7^--(8)--(7)-----5h7p5-----7--5-----|------------------------------
A------------------------------------7-----------|------------------------------
E------------------------------------------------|------------------------------
                                                                                
[ Tab from: http://www.guitartabs.cc/tabs/t/ted_nugent/pentatonic_e_minor_lick_tab.html ]
                                                                                
E-----------------------------|-------------------------------------------------
B-----------------------------|-------------------------------------------------
G-----------------------------|-------------------------------------------------
D-----------------------------|-------------------------------------------------
A---7p5h7p5-----7p5-----------|-------------------------------------------------
E------------7-------7--2~~~--|-------------------------------------------------
                                                                            

                                                                                
E-------------------------------------------|-----------------------------------
B-------------------------------------------|-----------------------------------
G------12h14--14p12------14p12------12--14--|-----------------------------------
D--------------------14---------14----------|-----------------------------------
A-------------------------------------------|-----------------------------------
E-------------------------------------------|-----------------------------------
                                                                                

        BD    BU    BD                                                                        
E-----------------------------------------------------|-------------------------
B-----------------------------------------------------|-------------------------
G---(16)--(14)--(16)--(14)--12------x--12-------------|-------------------------
D-------------------------------14---------14--12h14--|-------------------------
A-----------------------------------------------------|-------------------------
E-----------------------------------------------------|-------------------------
                                                                                

                                                                                
E------------------------------------17\----------------------------------------
B--------------------------------17---------------------------------------------
G-------------------------------------------------------------------------------
D-------s-----------------12----------------------------------------------------
A---14--12-----10---------14----------------------------------------------------
E------------------12-----------------------------------------------------------
Comments