Ted Nugent - Great White Buffalo Chords & Tabs

 

Great White Buffalo Chords & Tabs

Ted Nugent Chords & Tabs

Version: 4 Type: Tab 0 ratings
1 star 2 stars 3 stars 4 stars 5 stars
comments

Great White Buffalo Tab

Main riff 1:

e|------------------------------------------------------------------------|
B|------------------------------------------------------------------------|
G|------------------------------------------------------------------------|
D|--0h2-----------------0-------------------------------------------------|
A|-----------230-------------0--------------------------------------------|
E|-------0----------------3----32p0---------------------------------------| 

e|------------------------------------------------------------------------|
B|------------------------------------------------------------------------|
G|------------------------------------------------------------------------|
D|--0h2-----------------0-------------------------------------------------|
A|-----------230-------------0--------------------------------------------|
E|-------0----------------3----32p0---------------------------------------| 

e|------------------------------------------------------------------------|
B|------------------------------------------------------------------------|
G|------------------------------------------------------------------------|
D|--0h2-----------------0-------------------------------------------------|
A|-----------230-------------0--------------------------------------------|
E|-------0----------------3----32p0---------------------------------------| 

e|------------------------------------------------------------------------|
B|------------------------------------------------------------------------|
G|------------------------------------------------------------------------|
D|--0h2-----------------0-------------------------------------------------|
A|-----------230-------------0--------------------------------------------|
E|-------0----------------3----32h0---------------------------------------| 


Main riff 2:
e|------------------------------------------------------------------------|
B|------------------------------------------------------------------------|
G|-9------7----9----9-9---5-------9------7-----9----9--7------------------|
D|-9------7----9----9-9---5-------9------7-----9----9--7------------------|
A|-7------5----7----7-7---3-------7------5-----7----7--5------------------|
E|---0000---00---00-----------------0000----00---00-----------------------| 
[ Tab from: http://www.guitartabs.cc/tabs/t/ted_nugent/great_white_buffalo_tab_ver_4.html ]
e|------------------------------------------------------------------------|
B|------------------------------------------------------------------------|
G|-9------7----9----9-9---5-------9------7-----9----9--7------------------|
D|-9------7----9----9-9---5-------9------7-----9----9--7------------------|
A|-7------5----7----7-7---3-------7------5-----7----7--5------------------|
E|---0000---00---00-----------------0000----00---00-----------------------|

Solo:

e|---23---2h3p2p0-------3-----23----3----23----5---3-----5--7-5-----------|
B|-----------------3--1----1-----11----1----3----3---5s7---5-5---8--------|
G|------------------------------------------------------------------------|
D|------------------------------------------------------------------------|
A|------------------------------------------------------------------------|
E|------------------------------------------------------------------------|

e|--77----5h7p5----------2s3----------------------------------------------|
B|---------------875------------------------------------------------------|
G|--------------------7--4s5----------------------------------------------|
D|------------------------------------------------------------------------|
A|------------------------------------------------------------------------|
E|------------------------------------------------------------------------|






Main riff 1:

e|------------------------------------------------------------------------|
B|------------------------------------------------------------------------|
G|------------------------------------------------------------------------|
D|--0h2-----------------0-------------------------------------------------|
A|-----------230-------------0--------------------------------------------|
E|-------0----------------3----32p0---------------------------------------|

e|------------------------------------------------------------------------|
B|------------------------------------------------------------------------|
G|------------------------------------------------------------------------|
D|--0h2-----------------0-------------------------------------------------|
A|-----------230-------------0--------------------------------------------|
E|-------0----------------3----32p0---------------------------------------| 




By:Samuel Eklund

Email: eklund91@msn.com
Comments