Ted Nugent - Cat Scratch Fever Chords & Tabs

 

Cat Scratch Fever Chords & Tabs

Ted Nugent Chords & Tabs

Version: 7 Type: Tab 0 ratings
1 star 2 stars 3 stars 4 stars 5 stars
comments

Cat Scratch Fever Tab

   
Intro:

e|------------------------------------------------------------------|
B|-----4------------------------------------------------------------|
G|-----5^------2---4---55----2--4----5---2---4---55----5--4--22-----|
D|-------------2---4---55----2--4----5---2---4---55----5--4--22-----|
A|---------------0---0-----0-------0--------0---0---0---------------|
E|------------------------------------------------------------------|

e|-------------------------------------------------------------------|
B|-----4-------------------------------------------------------------|
G|-----5^--2---4---55---2-4---5--------2--4--55---5-4-22-------------|
D|---------2---4---55---2-4---5--------2--4--55---5-4-22-------------|
A|-----------0---0----0-----0-------------------0--------------------|
E|------------------------------0-2-3----------------------0-2-3-----|

Chorus/main rhythm:

e|-------------------------------------------------------------------|
B|-------------------------------------------------------------------|
G|------2---4----55----2-4---5--------2--4--55---5-4-22--------------|
D|------2---4----55----2-4---5--------2--4--55---5-4-22--------------|
A|--------0----0-----0-----0-------------------0---------------------|
E|------------------------------0-2-3----------------------0-2-3-----|

(Repeat Twice)

Verse:
[ Tab from: http://www.guitartabs.cc/tabs/t/ted_nugent/cat_scratch_fever_tab_ver_7.html ]
e|-----------------------------------------------------2--------------|
B|---------------------------------------------------3----------------|
G|---2----5---22--5---2-5---2-------------------3--2-------2----------|
D|---2----5---22--5---2-5---2---------0-------0------------2----------|
A|------0---0-------0-----0-------0-3-------2-------------------------|
E|----------------------------------------3---------------------------|


e|-----------------------------------------------------------------2-----|
B|---------------------------------------------------------------3-------|
G|--2--5-22-----2----5---22--5----2-5---2-------------------3--2------2--|
D|--2--5-22-----2----5---22--5----2-5---2---------0-------0-----------2--|
A|---0-------0---0-----0--------0-----0------0-3-------2-----------------|
E|---------------------------------------------------3-------------------|

Back to Verse:

e|-------------------------------------------------------------------|
B|-------------------------------------------------------------------|
G|------2---4----55----2-4---5--------2--4--55---5-4-22--------------|
D|------2---4----55----2-4---5--------2--4--55---5-4-22--------------|
A|--------0----0-----0-----0-------------------0---------------------|
E|------------------------------0-2-3----------------------0-2-3-----|


Riff A:

e|---------------------------------------------------------------------|
B|---------------------------------------------------------------------|
G|----6----666666---5----555555----------------------------------------|
D|----6----666666---5----555555----------------------------------------|
A|----8----888888---3----333333----------------------------------------|
E|---------------------------------------------------------------------|

It's nothin' dangerous, I feel no pain....

Play that twice then do this,

e|--------------|
B|--7----7------|
G|---8-7---8-7--|
D|--------------|
A|--------------|
E|--------------|

Then play the above riff twice more and go into the main riff again.  Listen to the song 
know the rest of the changes, but this is all you need to know to play the rhythm of 
song.
Comments