Ted Nugent - Cat Scratch Fever Chords & Tabs

 

Cat Scratch Fever Chords & Tabs

Ted Nugent Chords & Tabs

Version: 1 Type: Tab 0 ratings
1 star 2 stars 3 stars 4 stars 5 stars
comments

Cat Scratch Fever Tab

Guitar tuned (EADGBE)
[ Tab from: http://www.guitartabs.cc/tabs/t/ted_nugent/cat_scratch_fever_tab.html ]
                   
       E--2--4--5--|--2--4--5--|--5--4--2------|
       B--2--4--5--|--2--4--5--|--5--4--2------|
       G--2--4--5--|--2--4--5--|--5--4--2------|
       D--2--4--5--|--2--4--5--|--5--4--2------|
       A--0--0--0--|--0--0--0--|--0--0--0------|
       E-----------|-----------|---------------|
                   
       E--2--4--5--|--2--4--5--|---------2--4--5--|--5--4--2-----|
       B--2--4--5--|--2--4--5--|---------2--4--5--|--5--4--2-----|
       G--2--4--5--|--2--4--5--|---------2--4--5--|--5--4--2-----|
       D--2--4--5--|--2--4--5--|---------2--4--5--|--5--4--2-----|
       A--0--0--0--|--0--0--0--|---------0--0--0--|--0--0--0-----|
       E-----------|-----------|--0-3-4-----------|--------------
                   
       E----------|-----3--2--2--|----------|--3--2--2--|--------|
       B----------|--------3--2--|----------|-----3--2--|--------|
       G----------|--------2--2--|----------|-----2--2--|--------|
       D--2--4h*--|-----------2--|--2--4h*--|--------2--|--------|
       A--2--4h*--|-----2--------|--2--4h*--|--2--------|--------|
       E----------|-----3--------|----------|--3--------|--------
       
       E--2--4--5--|--2--4--5--|--2--4--5--|---------2--4--5-----|
       B--2--4--5--|--2--4--5--|--2--4--5--|---------2--4--5-----|
       G--2--4--5--|--2--4--5--|--2--4--5--|---------2--4--5-----|
       D--2--4--5--|--2--4--5--|--2--4--5--|---------2--4--5-----|
       A--0--0--0--|--0--0--0--|--0--0--0--|---------0--0--0-----|
       E-----------|-----------|-----------|--0-3-5--------------|
Comments