Tears For Fears - Shout Chords & Tabs

 

Shout Chords & Tabs

Tears For Fears Chords & Tabs

Version: 1 Type: Tab 0 ratings
1 star 2 stars 3 stars 4 stars 5 stars
comments

Shout Tab

   
##################################################################################
# This file is the author's own work and represents their interpretation of the  #
# song. You may only use this file for private study, scholarship, or research.  #
##################################################################################

SHOUT

by Tears For Fears
Album: Music From the Big Chair (1985)


CHORUS:

G (Chord Throughout Chorus) 

Shout, Shout, let it all out
These are the things I can do without, 
Come on, I'm talking to you, come on


VERSES (Keyboard Notes):


E-----------8---10-|----------6---------------6-----|----------8---10---8-|----------8---10---8-|
B---6---8----------|--6---8-------8---6---8-------8-|--6---8--------------|--6---8--------------|
G------------------|--------------------------------|---------------------|---------------------|
D------------------|--------------------------------|---------------------|---------------------|
A------------------|--------------------------------|---------------------|---------------------|
E------------------|--------------------------------|---------------------|---------------------|

"In violent times......"

CHORUS (Keyboards for guitar):

E-----------8---10-|----------6---------------6-----|-----------8---10-|-----------8---10-|
B---6---8----------|--6---8-------8---6---8-------8-|---6---8----------|---6---8----------|
G------------------|--------------------------------|------------------|------------------|
D------------------|--------------------------------|------------------|------------------|
A------------------|--------------------------------|------------------|------------------|
E------------------|--------------------------------|------------------|------------------|


E----------8---10---6------|----------8---10---6------|----------8---10-|----------8---10-|
B--6---8----------------8--|--6---8----------------8--|--6---8----------|--6---8----------|
G--------------------------|--------------------------|-----------------|-----------------|
D--------------------------|--------------------------|-----------------|-----------------|
A--------------------------|--------------------------|-----------------|-----------------|
E--------------------------|--------------------------|-----------------|-----------------|

Verse1
{REPEAT CHORUS}
VERSE 2


{REPEAT CHORUS}

SOLO (Keyboard Part):
[ Tab from: http://www.guitartabs.cc/tabs/t/tears_for_fears/shout_tab.html ]
E----------6-------------------6--|  (repeat 3 times)
B--8---6-------8---8---8---6------|
G---------------------------------|
D---------------------------------|
A---------------------------------|
E---------------------------------|


SOLO 2 (Keyboard Part):

E---8---8---8---6-----|--6---8---8---6---8---8---6-|--6---8---8---6---8---8---8---6-----|
B-------------------8-|----------------------------|----------------------------------8-|
G---------------------|----------------------------|------------------------------------|
D---------------------|----------------------------|------------------------------------|
A---------------------|----------------------------|------------------------------------|
E---------------------|----------------------------|------------------------------------|


{REPEAT CHORUS}

(Verse3)

{REPEAT CHORUS}

SOLO:

E-------------|--------8--10--------6--------6--|--13--11--10--8--6-------|
B--8--8--8--8-|--6--8---------6--8-----6--8-----|--------------------8--6-|
G-------------|---------------------------------|-------------------------|
D-------------|---------------------------------|-------------------------|
A-------------|---------------------------------|-------------------------|
E-------------|---------------------------------|-------------------------|


E--------------------8--10-|-6-----------8--10--6------------------------------|
B--6--6--6--8--6--8--------|----8--6--8------------8--6h8--6h8--6h8--6h8--6h8--|
G--------------------------|---------------------------------------------------|
D--------------------------|---------------------------------------------------|
A--------------------------|---------------------------------------------------|
E--------------------------|---------------------------------------------------|

E--15~~--18--17--15--10--6--8--10--6--8--10--|----13--11--10--8--6-------|
B--------------------------------------------|----------------------8--6-|
G--------------------------------------------|---------------------------|
D--------------------------------------------|---------------------------|
A--------------------------------------------|---------------------------|
E--------------------------------------------|---------------------------|

E-----------8--10~~~-|--------8--10~~~-|--/10--13~~--10--13--10--13--10--13--10\-|
B--8--6--8-----------|-6--8------------|-----------------------------------------|
G--------------------|-----------------|-----------------------------------------|
D--------------------|-----------------|-----------------------------------------|
A--------------------|-----------------|-----------------------------------------|
E--------------------|-----------------|-----------------------------------------|


~= vibrato
/\= slide
h= hammer



(mold15@hotmail.com)
Comments