Tears For Fears - Cold Chords & Tabs

 

Cold Chords & Tabs

Tears For Fears Chords & Tabs

Version: 1 Type: Chords 0 ratings
1 star 2 stars 3 stars 4 stars 5 stars
comments

Cold Chords

   
#----------------------------------PLEASE NOTE---------------------------------#
#This file is the author's own work and represents their interpretation of the #
#song. You may only use this file for private study, scholarship, or research. #
#------------------------------------------------------------------------------#
#

COLD (CHORDS) - TEARS FOR FEARS
from the album "Elemental"
--------------------------------
words and music by ROLAND ORZABAL

transcribed by Justin B, (Ragtm@freemail.nl)

Chords that are used in this song:
----------------------------------


   C#no3   Dno3   E   G6  Asus4  B   Aadd9  C#   D   G   A   F#
|--X-------X---------------------2----------1----2---3-------2-----|
|--2-------3--------------3------4---2------2----3-------2---2-----|
|--1-------2------1-------2------4---4------1----2-------2---3-----|
|--X--------------2-------2------4---2------3------------2---4-----|
|--4--------------2---2------------------------------2-------------|
|---------------------3------------------------------3-------------|

Intro:
------
C#no3
Dno3
E
G6
E
G6
E
G6
Asus4

trns by Justin B, (Ragtm@freemail.nl)

[ Tab from: http://www.guitartabs.cc/tabs/t/tears_for_fears/cold_crd.html ]
****************************************************************************************************************

****************************************************************************************************************


From: IaoVERTIGO@aol.com
Date: Sun, 10 Dec 1995 16:43:03 -0500

TEARS FOR FEARS: "FALLING DOWN"
(Roland Orzabal)
from the album Raoul and the Kings of Spain


Verse one:
---------------

-----------------------------------------------------------
---2---------2-----------------------------------2---------
---2---------2---------2-------2-------2--------2----------
---0---------0---------0-------0-------0--------0----------
---0---------3---------0-------3-------3--------0----------
------------------------0----------------------------------
    Is          this       world     spin - ning     round


--------------------------------------------0-----------
---2-------2--------2-------2-----2-------2-------------
---2-------2--------2-------2-----2-------2-------------
---0-------0--------0-------0-----0---------------------
---0-------3--------1-------0-----0---------------------
--------------------------------------------------------


Ending:
-----------
C         Em
Falling down
C         Em
Falling down
C         Em
Falling down
C         Em
Falling down

(Play verse "riff" twice ending with slight crescendo on second time)


--- Matt (iaovertigo@aol.com)



Comments