Tears For Fears - Call Me Mellow Chords & Tabs

 

Call Me Mellow Chords & Tabs

Tears For Fears Chords & Tabs

Version: 1 Type: Tab 0 ratings
1 star 2 stars 3 stars 4 stars 5 stars
comments

Call Me Mellow Tab

capo on 3rd fret...


Intro and Verse   "Fill the sky... I wouldn't mind..."
G  --------------------|
C  --4-----0--6--------|
F  ----6--------5------|
Bb ------6--------6----|
D  --------------------|
G  --------------------|

Bridge   "Ooh is she wild?"
G  --------------------|
C  --2-----6-----4-----|
F  --2-----8-----6-----|
Bb --------8-----6-----|
D  --------8-----6-----|
G  --------------------|

Chorus   "And then she knows..."
G  --4-----------6-----------|
C  --6-----6-----8-----4-----|
F  --6-----8-----8-----6-----|
Bb --5-----8-----7-----6-----|
D  --4-----8-----6-----6-----|
G  --4-----------6-----------|

Bridge 2    "She'll dress down for us..."
G  --------------4-----------------------------------------------|
C  --2-----6-----6-----6-----6---4-----4---3-----3---0-----------|
F  --2-----8-----6-------8---------6---------6---------6---------|
Bb --------8-----5---------8---------6---------6---------6-------|
D  --------8-----4-----------------------------------------------|
G  --------------4-----------------------------------------------|

[ Tab from: http://www.guitartabs.cc/tabs/t/tears_for_fears/call_me_mellow_tab.html ]
"Call Me Mellow"

Fill the sky with love
Fill the sky with love

I wouldn't mind but she just turned up on the doorstep
Wistfull and ashen, slightly bedraggled
Last time I saw her she was howling at the moon
Roaming the forest, lupine and rabid

(Bridge)
Woah, is she wild? Does she see my inner child?

(Chorus)
But then she knows it's like a curse
To find our chosen roles reversed
To unify my universe
To call me mellow

If I was only half my age and she was older
We'd live on ice cream on Coney Island
And though it's gravity that drags down my balloon
She stays in orbit way after midnight

(Bridge)
Woah, slip and slide - does she go all dewey-eyed?

(Chorus)
But then she knows it's like a curse
To find our chosen roles reversed
To unify my universe
To call me mellow

(Bridge 2)
She'll dress down for us
She'll break new ground for us
Watching me cracking up
She'll hang round fellahs
With all the ground swellers
Driving me like a truck

(Chorus)
But then she knows it's like a curse
To find our chosen roles reversed
To unify my universe
To call me mellow
Comments