Team Sleep - Princeton Review Chords & Tabs

 

Princeton Review Chords & Tabs

Team Sleep Chords & Tabs

Version: 1 Type: Tab 0 ratings
1 star 2 stars 3 stars 4 stars 5 stars
comments

Princeton Review Tab

   
-----------------------------------------------------------------
Princeton Review - Team Sleep
-----------------------------------------------------------------
Tabbed by:Cross
Email:xcrossx1 @ yahoo.com
Date:4/25/05
Tuning:EADGBe

 Effect thing
e|---------------------------------------------------------------|
B|-13--------12-----8--------6-----------------------------------|
G|---------------------------------------------------------------|
D|---------------------------------------------------------------|
A|---------------------------------------------------------------|
E|---------------------------------------------------------------|

Verse
e|--0---0--------------------------------------------------------|
B|--0---0--------------------------------------------------------|
G|--9---4--------------------------------------------------------|
D|-10---5--------------------------------------------------------|
A|-10---3--------------------------------------------------------|
E|--8------------------------------------------------------------|
[ Tab from: http://www.guitartabs.cc/tabs/t/team_sleep/princeton_review_tab.html ]
Verse  Guitar 2
e|---------------------------------------------------------------|
B|-7--8--7-------------------------------------------------------|
G|---------7--7h9------------------------------------------------|
D|----------------9----------------------------------------------|
A|---------------------------------------------------------------|
E|---------------------------------------------------------------|

Chorus
e|-0-------------------------------------------------------------|
B|-0-------------------------------------------------------------|
G|-7-------------------------------------------------------------|
D|-8-------------------------------------------------------------|
A|-8-------------------------------------------------------------|
E|-6-------------------------------------------------------------|

Bridge
e|---------------------------------------------------------------|
B|---------------------------------------------------------------|
G|---------------------------------------------------------------|
D|--7---7---7--9--7----7---7----7--9--7--------------------------|
A|----9---8--------------9---8-----------------------------------|
E|-0-----------------6-------------------------------------------|

Strum the chords as needed.


| / slide up
| \ slide down
| h hammer-on
| p pull-off
| ~ vibrato
| + harmonic
| x Mute note
Comments