Team Sleep - Natalie Portman Chords & Tabs

 

Natalie Portman Chords & Tabs

Team Sleep Chords & Tabs

Version: 1 Type: Tab 0 ratings
1 star 2 stars 3 stars 4 stars 5 stars
comments

Natalie Portman Tab

   
-------------------------------------------------------------------------------
			     Natalie Portman- Team Sleep
-------------------------------------------------------------------------------

check out Team Sleep at Url:www.teamsleep.net
Tabbed by:Jonathan Mojica
Email:xcrossx1@yahoo.com
Tuning:Drop D and Half step down Db
Effects:Delay with a little feedback
Notes:This is how I play it since I cant get the exact effects as Todd.
I only added a few notes to fill in the notes that his delay makes.

Todd's Main Riff Guitar 1

eb|---------------------------------------------------------------------------|
Bb|---------------------------------------------------------------------------|
Gb|--------------------5------------------------------------------------------|
Db|----5--5-----5-5/7-----7\2-2-2-2-2-2-2-------------------------------------|
Ab|-------------------------0-0-0-0-0-0-0-------------------------------------|
Db|-3--------3----------------------------------------------------------------|

Chino's Riff guitar 2
part 1
                  let ring 
Eb|---------------------------------------------------------------------------|
Bb|--------------6---------5--------6 5/6\5/10~-------------------------------|
Gb|---------------------------------------------------------------------------|
Db|---------------------------------------------------------------------------|
Ab|---------------------------------------------------------------------------|
Db|---------------------------------------------------------------------------|
[ Tab from: http://www.guitartabs.cc/tabs/t/team_sleep/natalie_portman_tab.html ]
Chino's Riff 
Part 2
                                      let ring          
eb|---------------------------------------------------------------------------|
Bb|--------------6----------6-5-----5\3---------------------------------------|
Gb|---------------------------------------------------------------------------|
Db|---------------------------------------------------------------------------|
Ab|---------------------------------------------------------------------------|
Db|---------------------------------------------------------------------------|

Chino's Riff Variation
                   Lightly                                        very lightly
eb|---------------------------------------------------------------------------|
Bb|--------------6---66---5---6--5/6\5/10~--10----6-6/8\6-5---5\3-3/5---------|
Gb|---------------------------------------------------------------------------|
Db|---------------------------------------------------------------------------|
Ab|---------------------------------------------------------------------------|
Db|---------------------------------------------------------------------------|

There is some other little riffs in this song but im getting tired of typing
maybe i'll add them if I get enough e-mails. P.S. this was my first tabs so I
hope all you Team Sleep fans appreciate  it also the deftones new self titled
album is coming out so go out and buy it on 5/20/03.

| /  slide up
| \  slide down
| h  hammer-on
| p  pull-off
| ~  Bend String up a little
| +  harmonic
| x  Mute note
===============================================================================
Comments