Team Sleep - Mercedes Chords & Tabs

 

Mercedes Chords & Tabs

Team Sleep Chords & Tabs

Version: 1 Type: Tab 0 ratings
1 star 2 stars 3 stars 4 stars 5 stars
comments

Mercedes Tab

   
-------------------------------------------------------------------------------
			   Mercedes - Team Sleep
-------------------------------------------------------------------------------

Tabbed by:Jonathan Mojica
Email:xcrossx1@yahoo.com
Tuning:Standard
Effects:A little bit of vibrato if you have a digitech Gnetx speed:25 Depth:4
Notes:4/27/03 the date I wrote this tab.

 Main Riff  Listen to the song for correct timing. 

e|---------------------------------------------------------------------------|
B|------------------------1-------1------------------------------------------|
G|---------------------------------------------------------------------------|x6
D|---------------------------------------------------------------------------|
A|----0-----1--0---0---------------------------------------------------------|
E|-2-----2-------------1-----1-1-----1---------------------------------------|
[ Tab from: http://www.guitartabs.cc/tabs/t/team_sleep/mercedes_tab.html ]
then 
 Riff 2 Chorus 
                  
e|---------------------------------------------------------------------------|
B|---------------------------------------------------------------------------|
G|----5----------------------------------------------------------------------|x3
D|-------6-----------2~----2~------------------------------------------------|
A|-4---------4----0-----0-----0----------------------------------------------|
E|---------------------------------------------------------------------------|

Then
 Riff 3 chorus ending                                             
e|---------------------------------------------------------------------------|
B|------1-------------1------------------------------------------------------|
G|--------1-------------1----------------------------------------------------|x1
D|---------------------------------------------------------------------------|
A|-1-1-------1-1--1----------------------------------------------------------|
E|---------------------------------------------------------------------------|

     Song Structure:
                                     
1.  Main Riff     x6
2.Chorus Riff 1   x3
3.Chorus Riff 2   x1
4.  Main Riff     x6
5.Chorus Riff 1   x3
6.Chorus Riff 2   x1
7. Breakdown
8.  Main Riff     x6


 this is my second tab so I hope all you Team Sleep fans appreciate it.

| /  slide up
| \  slide down
| h  hammer-on
| p  pull-off
| ~  Bend String up a little
| +  harmonic
| x  Mute note
===============================================================================
Comments