Team Sleep - Iceache Chords & Tabs

 

Iceache Chords & Tabs

Team Sleep Chords & Tabs

Version: 1 Type: Tab 0 ratings
1 star 2 stars 3 stars 4 stars 5 stars
comments

Iceache Tab

   
-------------------------------------------------------------------------------
			     Iceache (rough) - Team Sleep
-------------------------------------------------------------------------------

Tabbed by:Jonathan Mojica
4/30/03
Email:xcrossx1@yahoo.com
Tuning:Standard

Guitar 1
Riff 1

e|---------------------------------------------------------------------------|
B|-10------------------------------------------------------------------------|
G|-------9-------------------------------------------------------------------|
D|---------------------------------------------------------------------------|
A|---------------------------------------------------------------------------|
E|---------------------------------------------------------------------------|



Guitar 2 
Riff 1

e|---------------------------------------------------------------------------|
B|---------------------------------------------------------------------------|
G|--------10-10-10-10-10-10-10-10-9-9-9-9-9-9-9-9-10-10-10-10-10-10-10-10----|
D|---------------------------------------------------------------------------|
A|---------------------------------------------------------------------------|
E|---------------------------------------------------------------------------|

Guitar 2 
Riff 1 cont.
e|---------------------------------------------------------------------------|
B|---------------------------------------------------------------------------|
G|-9-9-9-9-9-9-9-9-----------------------------------------------------------|
D|---------------------------------------------------------------------------|
A|---------------------------------------------------------------------------|
E|---------------------------------------------------------------------------|

Guitar 1
Riff 2
[ Tab from: http://www.guitartabs.cc/tabs/t/team_sleep/iceache_tab.html ]
e|---------------------------------------------------------------------------|
B|---------------------------------------------------------------------------|
G|-7-----10------------------------------------------------------------------|
D|---------------------------------------------------------------------------|
A|---------------------------------------------------------------------------|
E|---------------------------------------------------------------------------|

Guitar 2 
Riff 2

e|---------------------------------------------------------------------------|
B|---------------------------------------------------------------------------|
G|--------10-10-10-10-10-10-10-10-9-9-9-9-9-9-9-9-10-10-10-10-10-10-10-10----|
D|---------------------------------------------------------------------------|
A|---------------------------------------------------------------------------|
E|---------------------------------------------------------------------------|

Guitar 2 
Riff 2 cont.
e|---------------------------------------------------------------------------|
B|---------------------------------------------------------------------------|
G|-9-9-9-9-9-9-9-9-----------------------------------------------------------|
D|---------------------------------------------------------------------------|
A|---------------------------------------------------------------------------|
E|---------------------------------------------------------------------------|

Guitar 1

riff 3
   
   Let ring at "you were wrong all along!"  
e|---------------------------------------------------------------------------|
B|---------------------------------------------------------------------------|
G|---------------------------------------------------------------------------|
D|-2---------------------------------------2---------------------------------|
A|-2---------------------------------------2---------------------------------|
E|-0---------------------------------------0---------------------------------|



| /  slide up
| \  slide down
| h  hammer-on
| p  pull-off
| ~  vibrato
| +  harmonic
| x  Mute note

===============================================================================
Comments