Team Sleep - Ever Since Wwi Chords & Tabs

 

Ever Since Wwi Chords & Tabs

Team Sleep Chords & Tabs

Version: 1 Type: Tab 0 ratings
1 star 2 stars 3 stars 4 stars 5 stars
comments

Ever Since Wwi Tab

   
-----------------------------------------------------------------
Ever Since WWI - Team Sleep
-----------------------------------------------------------------
Tabbed by:Cross
Email:xcrossx1 @ yahoo.com
Date:4/25/05
Tuning:EADGBe


  Intro/Verse -  Guitar 1
e|-0-0-----------------------------------------------------------|
B|-0-0-----1-1---------------------------------------------------|
G|-x-x-----0-0-----0-0-------------------------------------------|
D|-2-2-----2-2-----0-0-------------------------------------------|
A|-2-2-/---3-3-----2-2-------------------------------------------|
E|-0-0-------------3-3-------------------------------------------|
                         
  Intro - Guitar 2                   Bend it
e|---------------------------------------------------------------|
B|---------------------------------------------------------------|
G|-4--4-4-9-9--9--9---4--4-4--9-9--9--9/11-----------------------|
D|---------------------------------------------------------------|
A|-2--2-2-7-7---------2--2-2--7-7--7--7/9------------------------|
E|---------------------------------------------------------------|

 Verse -  Guitar 2
e|---------------------------------------------------------------|
B|---------------------------------------------------------------|
G|-7\4--7-7/9--12--11-7--9---4-----------------------------------|
D|---------------------------------------------------------------|
A|-5\2--5-5/7--10--9--5--7---2-----------------------------------|
E|---------------------------------------------------------------|

Pre-Chorus -  Guitar 1             end with       
e|------------------------------|--------------------------------|
B|------------------------------|--------------------------------|
G|-1---------3------------------|-1-------4-------3--------------|
D|-2---------2------------------|-2-------2-------2--------------|
A|-2---------2------------------|-2-------2-------2--------------|
E|-0---------0------------------|-0-------0-------0--------------|

^ or This (it is so low in the background that I can't tell)
You can also play B and e open if you want:

Pre-Chorus  -  Guitar 1            end with
e|------------------------------|--------------------------------|
B|------------------------------|--------------------------------|
G|-1--------3-------------------|--1------4-------3--------------|
D|-2--------2-------------------|--2------2-------2--------------|
A|-0--------1-------------------|--0------2-------2--------------|
E|-0--------2-------------------|--0------0-------0--------------|

  Pre-Chorus - Guitar 2
e|---------------------------------------------------------------|
B|---------------------------------------------------------------|
G|-9--9--13-----14--13---9---11--6-------------------------------|
D|---------------------------------------------------------------|
A|-7--7--11-----12--11---7---9---4-------------------------------|
E|---------------------------------------------------------------|
[ Tab from: http://www.guitartabs.cc/tabs/t/team_sleep/ever_since_wwi_tab.html ]
e|---------------------------------------------------------------|
B|---------------------------------------------------------------|
G|-9--9--13-----14--13---11----9--9------------------------------|
D|---------------------------------------------------------------|
A|-7--7--11-----12--11---9-----7--7------------------------------|
E|---------------------------------------------------------------|
  Chorus - Guitar 1 (strum of course im not going to type the same thing 
  over and over again)
e|---------------------------------------------------------------|
B|---------------------------------------------------------------|
G|-4------9--9----4----------------------------------------------|
D|---------------------------------------------------------------|
A|-2------7--7----2----------------------------------------------|
E|-0--------------3----------------------------------------------|

 Chorus guitar 2
e|-0-0------------3--3-------------------------------------------|
B|-0-0----5--5----3--3-------------------------------------------|
G|--------5--5----4--4-------------------------------------------|
D|-2-2----5--5----5--5-------------------------------------------|
A|-2-2----3--3----5--5-------------------------------------------|
E|-0-0------------3--3-------------------------------------------|

  Outro - Guitar 2
e|---------------------------------------------------------------|
B|---------------------------------------------------------------|
G|--9-------11---12-----11---------------------------------------|
D|---------------------------------------------------------------|
A|--7-------9----10-----9----------------------------------------|
E|---------------------------------------------------------------|

 Outro - guitar 3   (leave out the D octave towards the end)
e|---------------------------------------------------------------|
B|---------------------------------------------------------------|
G|-7-7---9--9---4--4---------------------------------------------|
D|---------------------------------------------------------------|
A|-5-5---7--7---2--2---------------------------------------------|
E|---------------------------------------------------------------|
  
  Outro - Guitar 4 (most likely overdub or part of some chord?)
e|---------14----------------------------------------------------|
B|-15------15----------------------------------------------------|
G|-14------16----------------------------------------------------|
D|---------------------------------------------------------------|
A|---------------------------------------------------------------|
E|---------------------------------------------------------------|


 I keep hearing this in the background throughout the song so..
e|-0-----2-------------------------------------------------------|
B|-0-----0-------------------------------------------------------|
G|---------------------------------------------------------------|
D|---------------------------------------------------------------|
A|---------------------------------------------------------------|
E|---------------------------------------------------------------|

This might look like a mess,  listen to the song to get the
strumming patterns down.  I'm willing to hear what you think is
missing (I'm not sure if there is or isn't anything missing) 
so feel free to email me.


| / slide up
| \ slide down
| h hammer-on
| p pull-off
| ~ vibrato
| + harmonic
| x Mute note
Comments