Team Sleep - Delorian Chords & Tabs

 

Delorian Chords & Tabs

Team Sleep Chords & Tabs

Version: 1 Type: Tab 0 ratings
1 star 2 stars 3 stars 4 stars 5 stars
comments

Delorian Tab

   
-----------------------------------------------------------------
Delorian - Team Sleep
-----------------------------------------------------------------
Tabbed by:Cross
Email:xcrossx1 @ yahoo.com
Date:4/25/05
Tuning:DADGBe  (Dropped D)
[ Tab from: http://www.guitartabs.cc/tabs/t/team_sleep/delorian_tab.html ]
  Guitar 1                  on the third time do the slide up
e|--------------------------|------------------------------------|
B|--------------------------|------------------------------------|
G|--------------------------|------------------------------------|
D|-------3-------------3----|-7---7---5--------------------------|
A|---0-----0------1--1---1--|--5---5---5-------------------------|
D|-0---0-----0--1----------1/5--5---5---5------------------------|


  Guitar 2                                strum the last octave
e|---------------------------------------------------------------|
B|---------------------------------------------------------------|
G|-11--11/9\12---14--12/11--8--10--7--12--14---12----------------|
D|---------------------------------------------------------------|
A|-9---9/ 7\10---12--10/9---6--8---5--10--12---10----------------|
D|---------------------------------------------------------------|

Enjoy, 6 down 9 more to go.....



| / slide up
| \ slide down
| h hammer-on
| p pull-off
| ~ vibrato
| + harmonic
| x Mute note

2:15 am
Comments