Team Sleep - Death By Plane Chords & Tabs

 

Death By Plane Chords & Tabs

Team Sleep Chords & Tabs

Version: 1 Type: Tab 0 ratings
1 star 2 stars 3 stars 4 stars 5 stars
comments

Death By Plane Tab

I havent got much idea about this song, but hopefully this is a ruff outline.

Intro(i think is played on keyboard)
E|-----------------|
B|-----------------|
G|---------------0-|
D|-5---5---5-----4-|
A|---2---3---2-3-2-|
E|---------------0-|
[ Tab from: http://www.guitartabs.cc/tabs/t/team_sleep/death_by_plane_tab.html ]
E|-----------------|-----------------|---------|---------|-----|
B|-----------------|-----------------|---------|---------|-----|
G|-----------------|-0-0-0-0-0-0-0-0-|-0-0-0-0-|-0-0-0-0-|-0-0-|
D|-5-5-5-5-5-5-5-5-|-4-4-4-4-4-4-4-4-|-5-5-5-5-|-4-4-4-4-|-2-2-|
A|-3-3-3-3-3-3-3-3-|-2-2-2-2-2-2-2-2-|-3-3-3-3-|-2-2-2-2-|-2-2-|
E|-3-3-3-3-3-3-3-3-|-0-0-0-0-0-0-0-0-|-0-0-0-0-|-0-0-0-0-|-0-0-|

Compare to song for struming and timing. 
Wright or wrong, this song sounds good.
Comments