Team Sleep - Boulevard Nights Chords & Tabs

 

Boulevard Nights Chords & Tabs

Team Sleep Chords & Tabs

Version: 1 Type: Tab 0 ratings
1 star 2 stars 3 stars 4 stars 5 stars
comments

Boulevard Nights Tab

   
-------------------------------------------------------------------------------
			    Boulevard Nights - Team Sleep
-------------------------------------------------------------------------------

Tabbed by:Jonathan Mojica
5/01/03
Email:xcrossx1@yahoo.com

Tuning:Dropped D

Guitar 1
Intro Riff 

e|---------------------------------------------------------------------------|
B|---------------------------------------------------------------------------|
G|---------------------------------------------------------------------------|
D|-0--0-----9--9--9\7--7\6-6-6-6-6-6-6-6-6-----------------------------------|
A|-0--0--------------------4-4-4-4-4-4-4-4-----------------------------------|
D|-0--0--------------------4-4-4-4-4-4-4-4-----------------------------------|

Guitar 1
Chorus 

e|---------------------------------------------------------------------------|
B|---------------------------------------------------------------------------|
G|---------------------------------------------------------------------------|
D|-0--0-----9--9--9\7\6--6-6-6-6-6-6-6-6-------------------------------------|
A|-0--0------------------4-4-4-4-4-4-4-4-------------------------------------|
D|-0--0------------------4-4-4-4-4-4-4-4-------------------------------------|

Guitar 2
Chorus

e|---------------------------------------------------------------------------|
B|---------------------------------------------------------------------------|
G|---------9-9-9-9-9-9--13-13-13-13-13-13-13~--------------------------------|
D|---------------------------------------------------------------------------|
A|---------7-7-7-7-7-7--11-11-11-11-11-11-11~--------------------------------|
D|---------------------------------------------------------------------------|
[ Tab from: http://www.guitartabs.cc/tabs/t/team_sleep/boulevard_nights_tab.html ]
Guitar 2
verse 
Lightly almost unheard                                             
e|---------------------------------------------------------------------------|
B|---------------------------------------------------------------------------|
G|--9-9-9-9-9-9-9-9--6-6-6-6-6-6-6-6-----------------------------------------|x3
D|---------------------------------------------------------------------------|
A|--7-7-7-7-7-7-7-7--4-4-4-4-4-4-4-4-----------------------------------------|
D|---------------------------------------------------------------------------|

then 
                            Volume fade up
e|---------------------------------------------------------------------------|
B|---------------------------------------------------------------------------|
G|--9-9-9-9-9-9-9-9---------13~----------------------------------------------|x1
D|---------------------------------------------------------------------------|
A|--7-7-7-7-7-7-7-7---------11~----------------------------------------------|
D|---------------------------------------------------------------------------|

End Riff

e|---------------------------------------------------------------------------|
B|---------------------------------------------------------------------------|
G|---------9-9-9-9-9-9-9-9\6-------------------------------------------------|
D|---------------------------------------------------------------------------|
A|---------7-7-7-7-7-7-7-7\4-------------------------------------------------|
D|---------------------------------------------------------------------------|

Song Structure:
1.Intro x4
2.Chorus x4
3.Verse 
4.Chorus x4
5.Verse mixed with chorus instead of guitar 2 playing chorus play verse x4
6.Chorus x5
7.Play guitar 1 chorus and End Riff x1

Hope everyone likes this one. This song is is one of my favorites.

| /  slide up
| \  slide down
| h  hammer-on
| p  pull-off
| ~  Bend 
| +  harmonic
| x  Mute note

===============================================================================
Comments