Tea Party - Writings On The Wall Chords & Tabs

 

Writings On The Wall Chords & Tabs

Tea Party Chords & Tabs

Version: 3 Type: Tab 0 ratings
1 star 2 stars 3 stars 4 stars 5 stars
comments

Writings On The Wall Tab

   
Drop D Tuning

Intro

E|--------------------------------------------|
B|--------------------------------------------|
G|--------------------------------------------|   Repeat 4 Times
D|--------------------------------------------|
A|-------5/7--------------5/7-7---------------|
D|-0-3-5------5-3-0-0-3-5--------5-3-0--------|


E|-----------------------------|
B|-----------------------------|
G|-----------------------------|   Repeat 4 Times
D|---------xxxx(5)-------------|
A|-------5-------------5-5-----|   (5) Harmonic 5th fret on D string
D|-0-3-5---------0-3-5-----5-3-|

E|-------------------|
B|-------------------|
G|-------------------|  
D|-------------------|   Bridge 1
A|-5/7-10-7----------|
D|----------10-7-5-3-|

E|-----------------|
B|-----------------|
G|-----------------|  
D|-----------------|    Bridge 2
A|-5/7-5---5-7-5---|
D|-------7-------7-|
[ Tab from: http://www.guitartabs.cc/tabs/t/tea_party/writings_on_the_wall_tab_ver_3.html ]
E|-----------------------------------------------|
B|-----------------------------------------------|
G|-5-5-5-5-5-5-5-5-5-5-5-5-5-7-7-7-2-2-2-2-2-2-2-|
D|-5-5-5-5-5-5-5-5-5-5-5-5-5-7-7-7-2-2-2-2-2-2-2-|
A|-3-3-3-3-3-3-3-3-3-3-3-3-3-5-5-5-0-0-0-0-0-0-0-|
D|-----------------------------------------------|
 |                                               |  
E|----------------------------------------------------------|
B|---------8---------8---------8----------------------------|
G|-11-9------11-9------11-9------11-9-------2-2-2-2-2-2-2-2-|
D|------10--------10--------10--------10-12-2-2-2-2-2-2-2-2-|
A|------------------------------------------0-0-0-0-0-0-0-0-|
D|----------------------------------------------------------|

E|---------------------|
B|---------------------|
G|-8-8-8-9-9-9-11------|
D|-8-8-8-9-9-9-11------|
A|-6-6-6-7-7-7-9-------|
D|---------------------|

arousseaudmd@gmail.com
Comments